ISO-10303-21;
HEADER;
FILE_DESCRIPTION (( 'STEP AP203' ),
    '1' );
FILE_NAME ('TFT-5G-402-LC_3D.step',
    '2022-09-29T15:34:24',
    ( '' ),
    ( '' ),
    'SwSTEP 2.0',
    'SolidWorks 2021',
    '' );
FILE_SCHEMA (( 'CONFIG_CONTROL_DESIGN' ));
ENDSEC;

DATA;
#1 = ORIENTED_EDGE ( 'NONE', *, *, #218, .F. ) ;
#2 = DIRECTION ( 'NONE',  ( -0.000000000000000000, -0.000000000000000000, 1.000000000000000000 ) ) ;
#3 = SECURITY_CLASSIFICATION ( '', '', #84 ) ;
#4 = PERSON_AND_ORGANIZATION ( #114, #141 ) ;
#5 = CARTESIAN_POINT ( 'NONE',  ( 0.000000000000000000, 0.000000000000000000, -0.8499999999999999778 ) ) ;
#6 = DIRECTION ( 'NONE',  ( -0.000000000000000000, -0.000000000000000000, 1.000000000000000000 ) ) ;
#7 = DIRECTION ( 'NONE',  ( -1.000000000000000000, 0.000000000000000000, 0.000000000000000000 ) ) ;
#8 = DIRECTION ( 'NONE',  ( -1.000000000000000000, 0.000000000000000000, 0.000000000000000000 ) ) ;
#9 = APPROVAL_DATE_TIME ( #29, #14 ) ;
#10 = EDGE_CURVE ( 'NONE', #210, #210, #52, .T. ) ;
#11 = PERSON_AND_ORGANIZATION ( #114, #141 ) ;
#12 = AXIS2_PLACEMENT_3D ( 'NONE', #292, #199, #293 ) ;
#13 = CARTESIAN_POINT ( 'NONE',  ( 0.000000000000000000, 0.000000000000000000, -1.050000000000000044 ) ) ;
#14 = APPROVAL ( #241, 'UNSPECIFIED' ) ;
#15 = EDGE_LOOP ( 'NONE', ( #1 ) ) ;
#16 = EDGE_LOOP ( 'NONE', ( #272 ) ) ;
#17 = EDGE_LOOP ( 'NONE', ( #83 ) ) ;
#18 = ORIENTED_EDGE ( 'NONE', *, *, #122, .F. ) ;
#19 = CARTESIAN_POINT ( 'NONE',  ( 0.000000000000000000, 0.000000000000000000, -1.369999999999999885 ) ) ;
#20 = CARTESIAN_POINT ( 'NONE',  ( 0.000000000000000000, 0.000000000000000000, -0.5999999999999999778 ) ) ;
#21 = AXIS2_PLACEMENT_3D ( 'NONE', #50, #137, #164 ) ;
#22 = PERSON_AND_ORGANIZATION ( #114, #141 ) ;
#23 = FACE_BOUND ( 'NONE', #105, .T. ) ;
#24 = DIRECTION ( 'NONE',  ( 1.000000000000000000, 0.000000000000000000, 0.000000000000000000 ) ) ;
#25 = DATE_AND_TIME ( #273, #260 ) ;
#26 = DIRECTION ( 'NONE',  ( 0.000000000000000000, 0.000000000000000000, 1.000000000000000000 ) ) ;
#27 = CARTESIAN_POINT ( 'NONE',  ( -0.05650000000000000161, 0.000000000000000000, -1.050000000000000044 ) ) ;
#28 = CARTESIAN_POINT ( 'NONE',  ( 0.000000000000000000, 0.000000000000000000, 0.000000000000000000 ) ) ;
#29 = DATE_AND_TIME ( #237, #187 ) ;
#30 = CIRCLE ( 'NONE', #115, 0.06900000000000000577 ) ;
#31 = AXIS2_PLACEMENT_3D ( 'NONE', #286, #279, #74 ) ;
#32 = ADVANCED_FACE ( 'NONE', ( #172, #146 ), #149, .T. ) ;
#33 = APPROVAL_ROLE ( '' ) ;
#34 = UNCERTAINTY_MEASURE_WITH_UNIT (LENGTH_MEASURE( 1.000000000000000082E-05 ), #277, 'distance_accuracy_value', 'NONE');
#35 = EDGE_LOOP ( 'NONE', ( #18 ) ) ;
#36 = DATE_AND_TIME ( #243, #160 ) ;
#37 = APPLICATION_PROTOCOL_DEFINITION ( 'international standard', 'config_control_design', 1994, #283 ) ;
#38 = AXIS2_PLACEMENT_3D ( 'NONE', #296, #190, #245 ) ;
#39 = ORIENTED_EDGE ( 'NONE', *, *, #166, .F. ) ;
#40 = EDGE_LOOP ( 'NONE', ( #102 ) ) ;
#41 = EDGE_LOOP ( 'NONE', ( #129 ) ) ;
#42 = PERSON_AND_ORGANIZATION_ROLE ( 'creator' ) ;
#43 = EDGE_LOOP ( 'NONE', ( #98 ) ) ;
#44 = APPROVAL_STATUS ( 'not_yet_approved' ) ;
#45 = DIRECTION ( 'NONE',  ( -1.000000000000000000, 0.000000000000000000, 0.000000000000000000 ) ) ;
#46 = VERTEX_POINT ( 'NONE', #257 ) ;
#47 = PERSON_AND_ORGANIZATION_ROLE ( 'classification_officer' ) ;
#48 = FACE_OUTER_BOUND ( 'NONE', #198, .T. ) ;
#49 = CARTESIAN_POINT ( 'NONE',  ( 0.08000000000000000167, 0.000000000000000000, 0.000000000000000000 ) ) ;
#50 = CARTESIAN_POINT ( 'NONE',  ( 0.000000000000000000, 0.000000000000000000, 0.000000000000000000 ) ) ;
#51 = CARTESIAN_POINT ( 'NONE',  ( -0.06050000000000001210, 0.000000000000000000, -0.8499999999999999778 ) ) ;
#52 = CIRCLE ( 'NONE', #167, 0.01850000000000000255 ) ;
#53 = DATE_TIME_ROLE ( 'creation_date' ) ;
#54 = PERSON_AND_ORGANIZATION ( #114, #141 ) ;
#55 = FACE_BOUND ( 'NONE', #220, .T. ) ;
#56 = AXIS2_PLACEMENT_3D ( 'NONE', #214, #6, #285 ) ;
#57 = ADVANCED_FACE ( 'NONE', ( #195, #66 ), #152, .T. ) ;
#58 = APPROVAL_PERSON_ORGANIZATION ( #201, #216, #151 ) ;
#59 = EDGE_LOOP ( 'NONE', ( #224 ) ) ;
#60 = CARTESIAN_POINT ( 'NONE',  ( 0.000000000000000000, 0.000000000000000000, -0.5999999999999999778 ) ) ;
#61 = EDGE_LOOP ( 'NONE', ( #130 ) ) ;
#62 = EDGE_LOOP ( 'NONE', ( #81 ) ) ;
#63 = EDGE_LOOP ( 'NONE', ( #247 ) ) ;
#64 = EDGE_LOOP ( 'NONE', ( #39 ) ) ;
#65 = COORDINATED_UNIVERSAL_TIME_OFFSET ( 8, 0, .BEHIND. ) ;
#66 = FACE_OUTER_BOUND ( 'NONE', #124, .T. ) ;
#67 = COORDINATED_UNIVERSAL_TIME_OFFSET ( 8, 0, .BEHIND. ) ;
#68 = CYLINDRICAL_SURFACE ( 'NONE', #79, 0.05650000000000000161 ) ;
#69 = AXIS2_PLACEMENT_3D ( 'NONE', #28, #26, #233 ) ;
#70 = FACE_BOUND ( 'NONE', #59, .T. ) ;
#71 = CYLINDRICAL_SURFACE ( 'NONE', #217, 0.08000000000000000167 ) ;
#72 = APPROVAL_DATE_TIME ( #205, #147 ) ;
#73 = DIRECTION ( 'NONE',  ( 0.000000000000000000, 0.000000000000000000, -1.000000000000000000 ) ) ;
#74 = DIRECTION ( 'NONE',  ( -1.000000000000000000, 0.000000000000000000, -0.000000000000000000 ) ) ;
#75 = EDGE_CURVE ( 'NONE', #46, #46, #281, .T. ) ;
#76 = AXIS2_PLACEMENT_3D ( 'NONE', #60, #175, #140 ) ;
#77 = MECHANICAL_CONTEXT ( 'NONE', #283, 'mechanical' ) ;
#78 = FACE_OUTER_BOUND ( 'NONE', #15, .T. ) ;
#79 = AXIS2_PLACEMENT_3D ( 'NONE', #107, #2, #228 ) ;
#80 = DIRECTION ( 'NONE',  ( 1.000000000000000000, 0.000000000000000000, 0.000000000000000000 ) ) ;
#81 = ORIENTED_EDGE ( 'NONE', *, *, #75, .T. ) ;
#82 = FACE_OUTER_BOUND ( 'NONE', #16, .T. ) ;
#83 = ORIENTED_EDGE ( 'NONE', *, *, #95, .T. ) ;
#84 = SECURITY_CLASSIFICATION_LEVEL ( 'unclassified' ) ;
#85 = LENGTH_MEASURE_WITH_UNIT ( LENGTH_MEASURE( 0.02539999999999999897 ), #231 );
#86 = DIRECTION ( 'NONE',  ( 1.000000000000000000, 0.000000000000000000, 0.000000000000000000 ) ) ;
#87 = PERSON_AND_ORGANIZATION ( #114, #141 ) ;
#88 = FACE_OUTER_BOUND ( 'NONE', #127, .T. ) ;
#89 = VERTEX_POINT ( 'NONE', #51 ) ;
#90 = CIRCLE ( 'NONE', #262, 0.01850000000000000255 ) ;
#91 = DIRECTION ( 'NONE',  ( 0.000000000000000000, 0.000000000000000000, -1.000000000000000000 ) ) ;
#92 = PLANE ( 'NONE',  #191 ) ;
#93 = VERTEX_POINT ( 'NONE', #229 ) ;
#94 = APPROVAL_PERSON_ORGANIZATION ( #54, #14, #33 ) ;
#95 = EDGE_CURVE ( 'NONE', #89, #89, #238, .T. ) ;
#96 = APPROVAL_PERSON_ORGANIZATION ( #227, #147, #136 ) ;
#97 = CC_DESIGN_PERSON_AND_ORGANIZATION_ASSIGNMENT ( #4, #250, ( #133 ) ) ;
#98 = ORIENTED_EDGE ( 'NONE', *, *, #166, .T. ) ;
#99 = CIRCLE ( 'NONE', #221, 0.05650000000000000161 ) ;
#100 = DIRECTION ( 'NONE',  ( -0.000000000000000000, -0.000000000000000000, 1.000000000000000000 ) ) ;
#101 = CARTESIAN_POINT ( 'NONE',  ( 0.000000000000000000, 0.000000000000000000, -1.219999999999999973 ) ) ;
#102 = ORIENTED_EDGE ( 'NONE', *, *, #10, .T. ) ;
#103 = EDGE_LOOP ( 'NONE', ( #193 ) ) ;
#104 = ADVANCED_FACE ( 'NONE', ( #55, #78 ), #298, .F. ) ;
#105 = EDGE_LOOP ( 'NONE', ( #178 ) ) ;
#106 = DATE_TIME_ROLE ( 'classification_date' ) ;
#107 = CARTESIAN_POINT ( 'NONE',  ( 0.000000000000000000, 0.000000000000000000, -1.219999999999999973 ) ) ;
#108 = VERTEX_POINT ( 'NONE', #183 ) ;
#109 = APPROVAL_DATE_TIME ( #278, #216 ) ;
#110 = FACE_OUTER_BOUND ( 'NONE', #63, .T. ) ;
#111 = CARTESIAN_POINT ( 'NONE',  ( -0.06900000000000000577, 0.000000000000000000, -0.5999999999999999778 ) ) ;
#112 = FACE_OUTER_BOUND ( 'NONE', #62, .T. ) ;
#113 = DIRECTION ( 'NONE',  ( 0.000000000000000000, 0.000000000000000000, 1.000000000000000000 ) ) ;
#114 = PERSON ( 'UNSPECIFIED', 'UNSPECIFIED', 'UNSPECIFIED', ('UNSPECIFIED'), ('UNSPECIFIED'), ('UNSPECIFIED') ) ;
#115 = AXIS2_PLACEMENT_3D ( 'NONE', #230, #213, #7 ) ;
#116 = FACE_OUTER_BOUND ( 'NONE', #43, .T. ) ;
#117 = CARTESIAN_POINT ( 'NONE',  ( 0.08000000000000000167, 0.000000000000000000, -0.5999999999999999778 ) ) ;
#118 = PERSON_AND_ORGANIZATION ( #114, #141 ) ;
#119 = ADVANCED_FACE ( 'NONE', ( #82, #143 ), #244, .T. ) ;
#120 = AXIS2_PLACEMENT_3D ( 'NONE', #155, #251, #45 ) ;
#121 = PRODUCT_DEFINITION ( 'UNKNOWN', '', #133, #275 ) ;
#122 = EDGE_CURVE ( 'NONE', #225, #225, #99, .T. ) ;
#123 = CC_DESIGN_APPROVAL ( #216, ( #3 ) ) ;
#124 = EDGE_LOOP ( 'NONE', ( #174 ) ) ;
#125 = DIRECTION ( 'NONE',  ( -1.000000000000000000, 0.000000000000000000, 0.000000000000000000 ) ) ;
#126 = CIRCLE ( 'NONE', #223, 0.06900000000000000577 ) ;
#127 = EDGE_LOOP ( 'NONE', ( #176 ) ) ;
#128 = DIRECTION ( 'NONE',  ( 0.000000000000000000, 0.000000000000000000, -1.000000000000000000 ) ) ;
#129 = ORIENTED_EDGE ( 'NONE', *, *, #171, .F. ) ;
#130 = ORIENTED_EDGE ( 'NONE', *, *, #75, .F. ) ;
#131 = COORDINATED_UNIVERSAL_TIME_OFFSET ( 8, 0, .BEHIND. ) ;
#132 = CARTESIAN_POINT ( 'NONE',  ( 0.000000000000000000, 0.000000000000000000, -0.5999999999999999778 ) ) ;
#133 = PRODUCT_DEFINITION_FORMATION_WITH_SPECIFIED_SOURCE ( 'ANY', '', #168, .NOT_KNOWN. ) ;
#134 = CALENDAR_DATE ( 2022, 29, 9 ) ;
#135 = DIRECTION ( 'NONE',  ( 0.000000000000000000, 0.000000000000000000, -1.000000000000000000 ) ) ;
#136 = APPROVAL_ROLE ( '' ) ;
#137 = DIRECTION ( 'NONE',  ( 0.000000000000000000, 0.000000000000000000, 1.000000000000000000 ) ) ;
#138 = VERTEX_POINT ( 'NONE', #234 ) ;
#139 = AXIS2_PLACEMENT_3D ( 'NONE', #5, #182, #252 ) ;
#140 = DIRECTION ( 'NONE',  ( 1.000000000000000000, 0.000000000000000000, -0.000000000000000000 ) ) ;
#141 = ORGANIZATION ( 'UNSPECIFIED', 'UNSPECIFIED', '' ) ;
#142 = EDGE_CURVE ( 'NONE', #181, #181, #30, .T. ) ;
#143 = FACE_OUTER_BOUND ( 'NONE', #17, .T. ) ;
#144 = DIRECTION ( 'NONE',  ( 1.000000000000000000, 0.000000000000000000, 0.000000000000000000 ) ) ;
#145 = EDGE_LOOP ( 'NONE', ( #246 ) ) ;
#146 = FACE_OUTER_BOUND ( 'NONE', #40, .T. ) ;
#147 = APPROVAL ( #44, 'UNSPECIFIED' ) ;
#148 = CLOSED_SHELL ( 'NONE', ( #274, #104, #226, #288, #264, #119, #57, #206, #153, #32, #248 ) ) ;
#149 = CYLINDRICAL_SURFACE ( 'NONE', #38, 0.01850000000000000255 ) ;
#150 = ORIENTED_EDGE ( 'NONE', *, *, #218, .T. ) ;
#151 = APPROVAL_ROLE ( '' ) ;
#152 = PLANE ( 'NONE',  #211 ) ;
#153 = ADVANCED_FACE ( 'NONE', ( #70, #112 ), #92, .T. ) ;
#154 = PRODUCT_RELATED_PRODUCT_CATEGORY ( 'detail', '', ( #168 ) ) ;
#155 = CARTESIAN_POINT ( 'NONE',  ( 0.000000000000000000, 0.000000000000000000, -1.050000000000000044 ) ) ;
#156 =( NAMED_UNIT ( * ) PLANE_ANGLE_UNIT ( ) SI_UNIT ( $, .RADIAN. ) );
#157 = AXIS2_PLACEMENT_3D ( 'NONE', #13, #100, #80 ) ;
#158 = DIRECTION ( 'NONE',  ( 0.000000000000000000, 0.000000000000000000, 1.000000000000000000 ) ) ;
#159 = FACE_OUTER_BOUND ( 'NONE', #41, .T. ) ;
#160 = LOCAL_TIME ( 8, 34, 24.00000000000000000, #215 ) ;
#161 = SHAPE_DEFINITION_REPRESENTATION ( #189, #239 ) ;
#162 = FACE_OUTER_BOUND ( 'NONE', #61, .T. ) ;
#163 = CYLINDRICAL_SURFACE ( 'NONE', #56, 0.06900000000000000577 ) ;
#164 = DIRECTION ( 'NONE',  ( 1.000000000000000000, 0.000000000000000000, -0.000000000000000000 ) ) ;
#165 = EDGE_CURVE ( 'NONE', #203, #203, #290, .T. ) ;
#166 = EDGE_CURVE ( 'NONE', #138, #138, #90, .T. ) ;
#167 = AXIS2_PLACEMENT_3D ( 'NONE', #101, #276, #125 ) ;
#168 = PRODUCT ( 'TFT-5G-402-LC_3D', 'TFT-5G-402-LC_3D', '', ( #77 ) ) ;
#169 = APPLICATION_PROTOCOL_DEFINITION ( 'international standard', 'config_control_design', 1994, #294 ) ;
#170 = CARTESIAN_POINT ( 'NONE',  ( 0.000000000000000000, 0.000000000000000000, -0.8499999999999999778 ) ) ;
#171 = EDGE_CURVE ( 'NONE', #108, #108, #126, .T. ) ;
#172 = FACE_OUTER_BOUND ( 'NONE', #64, .T. ) ;
#173 = CIRCLE ( 'NONE', #120, 0.06050000000000001210 ) ;
#174 = ORIENTED_EDGE ( 'NONE', *, *, #261, .T. ) ;
#175 = DIRECTION ( 'NONE',  ( 0.000000000000000000, 0.000000000000000000, 1.000000000000000000 ) ) ;
#176 = ORIENTED_EDGE ( 'NONE', *, *, #165, .T. ) ;
#177 = CC_DESIGN_PERSON_AND_ORGANIZATION_ASSIGNMENT ( #22, #42, ( #133 ) ) ;
#178 = ORIENTED_EDGE ( 'NONE', *, *, #95, .F. ) ;
#179 = APPROVAL_STATUS ( 'not_yet_approved' ) ;
#180 = PLANE ( 'NONE',  #21 ) ;
#181 = VERTEX_POINT ( 'NONE', #111 ) ;
#182 = DIRECTION ( 'NONE',  ( 0.000000000000000000, 0.000000000000000000, -1.000000000000000000 ) ) ;
#183 = CARTESIAN_POINT ( 'NONE',  ( -0.06900000000000000577, 0.000000000000000000, -0.8499999999999999778 ) ) ;
#184 = AXIS2_PLACEMENT_3D ( 'NONE', #170, #222, #266 ) ;
#185 = DIRECTION ( 'NONE',  ( -1.000000000000000000, 0.000000000000000000, 0.000000000000000000 ) ) ;
#186 = PLANE ( 'NONE',  #31 ) ;
#187 = LOCAL_TIME ( 8, 34, 24.00000000000000000, #236 ) ;
#188 = LOCAL_TIME ( 8, 34, 24.00000000000000000, #67 ) ;
#189 = PRODUCT_DEFINITION_SHAPE ( 'NONE', 'NONE',  #121 ) ;
#190 = DIRECTION ( 'NONE',  ( -0.000000000000000000, -0.000000000000000000, 1.000000000000000000 ) ) ;
#191 = AXIS2_PLACEMENT_3D ( 'NONE', #280, #135, #209 ) ;
#192 = DIRECTION ( 'NONE',  ( -1.000000000000000000, 0.000000000000000000, -0.000000000000000000 ) ) ;
#193 = ORIENTED_EDGE ( 'NONE', *, *, #165, .F. ) ;
#194 = PERSON_AND_ORGANIZATION_ROLE ( 'design_owner' ) ;
#195 = FACE_BOUND ( 'NONE', #35, .T. ) ;
#196 = CIRCLE ( 'NONE', #253, 0.08000000000000000167 ) ;
#197 =( NAMED_UNIT ( * ) SI_UNIT ( $, .STERADIAN. ) SOLID_ANGLE_UNIT ( ) );
#198 = EDGE_LOOP ( 'NONE', ( #150 ) ) ;
#199 = DIRECTION ( 'NONE',  ( 0.000000000000000000, 0.000000000000000000, -1.000000000000000000 ) ) ;
#200 = EDGE_LOOP ( 'NONE', ( #242 ) ) ;
#201 = PERSON_AND_ORGANIZATION ( #114, #141 ) ;
#202 = CARTESIAN_POINT ( 'NONE',  ( 0.000000000000000000, 0.000000000000000000, -0.8499999999999999778 ) ) ;
#203 = VERTEX_POINT ( 'NONE', #49 ) ;
#204 = LOCAL_TIME ( 8, 34, 24.00000000000000000, #65 ) ;
#205 = DATE_AND_TIME ( #232, #204 ) ;
#206 = ADVANCED_FACE ( 'NONE', ( #162, #256 ), #68, .T. ) ;
#207 = PLANE ( 'NONE',  #139 ) ;
#208 = CARTESIAN_POINT ( 'NONE',  ( -0.01850000000000000255, 0.000000000000000000, -1.219999999999999973 ) ) ;
#209 = DIRECTION ( 'NONE',  ( -1.000000000000000000, 0.000000000000000000, -0.000000000000000000 ) ) ;
#210 = VERTEX_POINT ( 'NONE', #208 ) ;
#211 = AXIS2_PLACEMENT_3D ( 'NONE', #268, #128, #192 ) ;
#212 = CC_DESIGN_DATE_AND_TIME_ASSIGNMENT ( #36, #53, ( #121 ) ) ;
#213 = DIRECTION ( 'NONE',  ( 0.000000000000000000, 0.000000000000000000, -1.000000000000000000 ) ) ;
#214 = CARTESIAN_POINT ( 'NONE',  ( 0.000000000000000000, 0.000000000000000000, -0.8499999999999999778 ) ) ;
#215 = COORDINATED_UNIVERSAL_TIME_OFFSET ( 8, 0, .BEHIND. ) ;
#216 = APPROVAL ( #179, 'UNSPECIFIED' ) ;
#217 = AXIS2_PLACEMENT_3D ( 'NONE', #20, #113, #24 ) ;
#218 = EDGE_CURVE ( 'NONE', #282, #282, #196, .T. ) ;
#219 = CARTESIAN_POINT ( 'NONE',  ( 0.000000000000000000, 0.000000000000000000, 0.000000000000000000 ) ) ;
#220 = EDGE_LOOP ( 'NONE', ( #297 ) ) ;
#221 = AXIS2_PLACEMENT_3D ( 'NONE', #271, #258, #284 ) ;
#222 = DIRECTION ( 'NONE',  ( 0.000000000000000000, 0.000000000000000000, -1.000000000000000000 ) ) ;
#223 = AXIS2_PLACEMENT_3D ( 'NONE', #202, #91, #8 ) ;
#224 = ORIENTED_EDGE ( 'NONE', *, *, #10, .F. ) ;
#225 = VERTEX_POINT ( 'NONE', #27 ) ;
#226 = ADVANCED_FACE ( 'NONE', ( #88 ), #180, .T. ) ;
#227 = PERSON_AND_ORGANIZATION ( #114, #141 ) ;
#228 = DIRECTION ( 'NONE',  ( 1.000000000000000000, 0.000000000000000000, 0.000000000000000000 ) ) ;
#229 = CARTESIAN_POINT ( 'NONE',  ( -0.06050000000000001210, 0.000000000000000000, -1.050000000000000044 ) ) ;
#230 = CARTESIAN_POINT ( 'NONE',  ( 0.000000000000000000, 0.000000000000000000, -0.5999999999999999778 ) ) ;
#231 =( LENGTH_UNIT ( ) NAMED_UNIT ( * ) SI_UNIT ( $, .METRE. ) );
#232 = CALENDAR_DATE ( 2022, 29, 9 ) ;
#233 = DIRECTION ( 'NONE',  ( 1.000000000000000000, 0.000000000000000000, 0.000000000000000000 ) ) ;
#234 = CARTESIAN_POINT ( 'NONE',  ( -0.01850000000000000255, 0.000000000000000000, -1.369999999999999885 ) ) ;
#235 = CC_DESIGN_DATE_AND_TIME_ASSIGNMENT ( #25, #106, ( #3 ) ) ;
#236 = COORDINATED_UNIVERSAL_TIME_OFFSET ( 8, 0, .BEHIND. ) ;
#237 = CALENDAR_DATE ( 2022, 29, 9 ) ;
#238 = CIRCLE ( 'NONE', #184, 0.06050000000000001210 ) ;
#239 = ADVANCED_BREP_SHAPE_REPRESENTATION ( 'TFT-5G-402-LC_3D', ( #291, #240 ), #295 ) ;
#240 = AXIS2_PLACEMENT_3D ( 'NONE', #219, #270, #144 ) ;
#241 = APPROVAL_STATUS ( 'not_yet_approved' ) ;
#242 = ORIENTED_EDGE ( 'NONE', *, *, #122, .T. ) ;
#243 = CALENDAR_DATE ( 2022, 29, 9 ) ;
#244 = CYLINDRICAL_SURFACE ( 'NONE', #157, 0.06050000000000001210 ) ;
#245 = DIRECTION ( 'NONE',  ( 1.000000000000000000, 0.000000000000000000, 0.000000000000000000 ) ) ;
#246 = ORIENTED_EDGE ( 'NONE', *, *, #142, .T. ) ;
#247 = ORIENTED_EDGE ( 'NONE', *, *, #171, .T. ) ;
#248 = ADVANCED_FACE ( 'NONE', ( #116 ), #186, .T. ) ;
#249 = FACE_OUTER_BOUND ( 'NONE', #145, .T. ) ;
#250 = PERSON_AND_ORGANIZATION_ROLE ( 'design_supplier' ) ;
#251 = DIRECTION ( 'NONE',  ( 0.000000000000000000, 0.000000000000000000, -1.000000000000000000 ) ) ;
#252 = DIRECTION ( 'NONE',  ( -1.000000000000000000, 0.000000000000000000, -0.000000000000000000 ) ) ;
#253 = AXIS2_PLACEMENT_3D ( 'NONE', #132, #158, #86 ) ;
#254 = FACE_OUTER_BOUND ( 'NONE', #103, .T. ) ;
#255 = CC_DESIGN_SECURITY_CLASSIFICATION ( #3, ( #133 ) ) ;
#256 = FACE_OUTER_BOUND ( 'NONE', #200, .T. ) ;
#257 = CARTESIAN_POINT ( 'NONE',  ( -0.05650000000000000161, 0.000000000000000000, -1.219999999999999973 ) ) ;
#258 = DIRECTION ( 'NONE',  ( 0.000000000000000000, 0.000000000000000000, -1.000000000000000000 ) ) ;
#259 = DIMENSIONAL_EXPONENTS ( 1.000000000000000000, 0.000000000000000000, 0.000000000000000000, 0.000000000000000000, 0.000000000000000000, 0.000000000000000000, 0.000000000000000000 ) ;
#260 = LOCAL_TIME ( 8, 34, 24.00000000000000000, #131 ) ;
#261 = EDGE_CURVE ( 'NONE', #93, #93, #173, .T. ) ;
#262 = AXIS2_PLACEMENT_3D ( 'NONE', #19, #73, #185 ) ;
#263 = CC_DESIGN_PERSON_AND_ORGANIZATION_ASSIGNMENT ( #118, #287, ( #121 ) ) ;
#264 = ADVANCED_FACE ( 'NONE', ( #23, #110 ), #207, .T. ) ;
#265 = CC_DESIGN_PERSON_AND_ORGANIZATION_ASSIGNMENT ( #87, #47, ( #3 ) ) ;
#266 = DIRECTION ( 'NONE',  ( -1.000000000000000000, 0.000000000000000000, 0.000000000000000000 ) ) ;
#267 = CC_DESIGN_APPROVAL ( #14, ( #121 ) ) ;
#268 = CARTESIAN_POINT ( 'NONE',  ( 0.000000000000000000, 0.000000000000000000, -1.050000000000000044 ) ) ;
#269 = CC_DESIGN_APPROVAL ( #147, ( #133 ) ) ;
#270 = DIRECTION ( 'NONE',  ( 0.000000000000000000, 0.000000000000000000, 1.000000000000000000 ) ) ;
#271 = CARTESIAN_POINT ( 'NONE',  ( 0.000000000000000000, 0.000000000000000000, -1.050000000000000044 ) ) ;
#272 = ORIENTED_EDGE ( 'NONE', *, *, #261, .F. ) ;
#273 = CALENDAR_DATE ( 2022, 29, 9 ) ;
#274 = ADVANCED_FACE ( 'NONE', ( #48, #254 ), #71, .T. ) ;
#275 = DESIGN_CONTEXT ( 'detailed design', #294, 'design' ) ;
#276 = DIRECTION ( 'NONE',  ( 0.000000000000000000, 0.000000000000000000, -1.000000000000000000 ) ) ;
#277 =( CONVERSION_BASED_UNIT ( 'INCH', #85 ) LENGTH_UNIT ( ) NAMED_UNIT ( #259 ) );
#278 = DATE_AND_TIME ( #134, #188 ) ;
#279 = DIRECTION ( 'NONE',  ( 0.000000000000000000, 0.000000000000000000, -1.000000000000000000 ) ) ;
#280 = CARTESIAN_POINT ( 'NONE',  ( 0.000000000000000000, 0.000000000000000000, -1.219999999999999973 ) ) ;
#281 = CIRCLE ( 'NONE', #12, 0.05650000000000000161 ) ;
#282 = VERTEX_POINT ( 'NONE', #117 ) ;
#283 = APPLICATION_CONTEXT ( 'configuration controlled 3d designs of mechanical parts and assemblies' ) ;
#284 = DIRECTION ( 'NONE',  ( -1.000000000000000000, 0.000000000000000000, 0.000000000000000000 ) ) ;
#285 = DIRECTION ( 'NONE',  ( 1.000000000000000000, 0.000000000000000000, 0.000000000000000000 ) ) ;
#286 = CARTESIAN_POINT ( 'NONE',  ( 0.000000000000000000, 0.000000000000000000, -1.369999999999999885 ) ) ;
#287 = PERSON_AND_ORGANIZATION_ROLE ( 'creator' ) ;
#288 = ADVANCED_FACE ( 'NONE', ( #159, #249 ), #163, .T. ) ;
#289 = CC_DESIGN_PERSON_AND_ORGANIZATION_ASSIGNMENT ( #11, #194, ( #168 ) ) ;
#290 = CIRCLE ( 'NONE', #69, 0.08000000000000000167 ) ;
#291 = MANIFOLD_SOLID_BREP ( 'Boss-Extrude5', #148 ) ;
#292 = CARTESIAN_POINT ( 'NONE',  ( 0.000000000000000000, 0.000000000000000000, -1.219999999999999973 ) ) ;
#293 = DIRECTION ( 'NONE',  ( -1.000000000000000000, 0.000000000000000000, 0.000000000000000000 ) ) ;
#294 = APPLICATION_CONTEXT ( 'configuration controlled 3d designs of mechanical parts and assemblies' ) ;
#295 =( GEOMETRIC_REPRESENTATION_CONTEXT ( 3 ) GLOBAL_UNCERTAINTY_ASSIGNED_CONTEXT ( ( #34 ) ) GLOBAL_UNIT_ASSIGNED_CONTEXT ( ( #277, #156, #197 ) ) REPRESENTATION_CONTEXT ( 'NONE', 'WORKASPACE' ) );
#296 = CARTESIAN_POINT ( 'NONE',  ( 0.000000000000000000, 0.000000000000000000, -1.369999999999999885 ) ) ;
#297 = ORIENTED_EDGE ( 'NONE', *, *, #142, .F. ) ;
#298 = PLANE ( 'NONE',  #76 ) ;
ENDSEC;
END-ISO-10303-21;
