ISO-10303-21;
HEADER;
FILE_DESCRIPTION (( 'STEP AP214' ),
    '1' );
FILE_NAME ('TFT-402-LF-LC_3D.STEP',
    '2021-09-29T16:49:57',
    ( '' ),
    ( '' ),
    'SwSTEP 2.0',
    'SolidWorks 2021',
    '' );
FILE_SCHEMA (( 'AUTOMOTIVE_DESIGN' ));
ENDSEC;

DATA;
#1 = DIRECTION ( 'NONE',  ( -1.000000000000000000, -0.000000000000000000, -0.000000000000000000 ) ) ;
#2 = AXIS2_PLACEMENT_3D ( 'NONE', #99, #22, #34 ) ;
#3 = DIRECTION ( 'NONE',  ( -1.000000000000000000, -0.000000000000000000, -0.000000000000000000 ) ) ;
#4 = EDGE_CURVE ( 'NONE', #72, #69, #133, .T. ) ;
#5 = CARTESIAN_POINT ( 'NONE',  ( 3.000000000000000444, 0.000000000000000000, 0.000000000000000000 ) ) ;
#6 = CARTESIAN_POINT ( 'NONE',  ( -3.000000000000000444, 0.000000000000000000, 0.000000000000000000 ) ) ;
#7 = LENGTH_MEASURE_WITH_UNIT ( LENGTH_MEASURE( 0.02539999999999999897 ), #143 );
#8 = PLANE ( 'NONE',  #52 ) ;
#9 = DIRECTION ( 'NONE',  ( -1.000000000000000000, -0.000000000000000000, -0.000000000000000000 ) ) ;
#10 = PRESENTATION_LAYER_ASSIGNMENT (  '', '', ( #94 ) ) ;
#11 = ORIENTED_EDGE ( 'NONE', *, *, #75, .T. ) ;
#12 = DIRECTION ( 'NONE',  ( 0.000000000000000000, 0.000000000000000000, -1.000000000000000000 ) ) ;
#13 = STYLED_ITEM ( 'NONE', ( #104 ), #45 ) ;
#14 = PRODUCT_DEFINITION ( 'UNKNOWN', '', #118, #119 ) ;
#15 = AXIS2_PLACEMENT_3D ( 'NONE', #103, #93, #127 ) ;
#16 = ADVANCED_BREP_SHAPE_REPRESENTATION ( 'TFT-402-LF-LC_3D', ( #45, #15 ), #83 ) ;
#17 = CARTESIAN_POINT ( 'NONE',  ( -3.000000000000000444, 0.000000000000000000, 0.07999999999999998779 ) ) ;
#18 = APPLICATION_CONTEXT ( 'automotive_design' ) ;
#19 =( LENGTH_UNIT ( ) NAMED_UNIT ( * ) SI_UNIT ( $, .METRE. ) );
#20 = UNCERTAINTY_MEASURE_WITH_UNIT (LENGTH_MEASURE( 1.000000000000000082E-05 ), #111, 'distance_accuracy_value', 'NONE');
#21 = VECTOR ( 'NONE', #1, 39.37007874015748143 ) ;
#22 = DIRECTION ( 'NONE',  ( 1.000000000000000000, 0.000000000000000000, 0.000000000000000000 ) ) ;
#23 = PRODUCT ( 'TFT-402-LF-LC_3D', 'TFT-402-LF-LC_3D', '', ( #144 ) ) ;
#24 = EDGE_CURVE ( 'NONE', #69, #72, #39, .T. ) ;
#25 = ORIENTED_EDGE ( 'NONE', *, *, #4, .T. ) ;
#26 =( GEOMETRIC_REPRESENTATION_CONTEXT ( 3 ) GLOBAL_UNCERTAINTY_ASSIGNED_CONTEXT ( ( #87 ) ) GLOBAL_UNIT_ASSIGNED_CONTEXT ( ( #38, #81, #112 ) ) REPRESENTATION_CONTEXT ( 'NONE', 'WORKASPACE' ) );
#27 = ORIENTED_EDGE ( 'NONE', *, *, #32, .T. ) ;
#28 = FILL_AREA_STYLE ('',( #139 ) ) ;
#29 =( LENGTH_UNIT ( ) NAMED_UNIT ( * ) SI_UNIT ( $, .METRE. ) );
#30 = MECHANICAL_DESIGN_GEOMETRIC_PRESENTATION_REPRESENTATION (  '', ( #94 ), #26 ) ;
#31 = DIRECTION ( 'NONE',  ( 1.000000000000000000, 0.000000000000000000, 0.000000000000000000 ) ) ;
#32 = EDGE_CURVE ( 'NONE', #105, #135, #148, .T. ) ;
#33 = AXIS2_PLACEMENT_3D ( 'NONE', #68, #49, #100 ) ;
#34 = DIRECTION ( 'NONE',  ( 0.000000000000000000, 0.000000000000000000, -1.000000000000000000 ) ) ;
#35 = CARTESIAN_POINT ( 'NONE',  ( 3.000000000000000444, 9.797174393178820912E-18, -0.07999999999999998779 ) ) ;
#36 = DIMENSIONAL_EXPONENTS ( 1.000000000000000000, 0.000000000000000000, 0.000000000000000000, 0.000000000000000000, 0.000000000000000000, 0.000000000000000000, 0.000000000000000000 ) ;
#37 = EDGE_CURVE ( 'NONE', #135, #69, #92, .T. ) ;
#38 =( CONVERSION_BASED_UNIT ( 'INCH', #91 ) LENGTH_UNIT ( ) NAMED_UNIT ( #73 ) );
#39 = CIRCLE ( 'NONE', #62, 0.07999999999999998779 ) ;
#40 = DIRECTION ( 'NONE',  ( 1.000000000000000000, 0.000000000000000000, 0.000000000000000000 ) ) ;
#41 = ADVANCED_FACE ( 'NONE', ( #95 ), #149, .T. ) ;
#42 = CARTESIAN_POINT ( 'NONE',  ( 3.000000000000000444, 0.000000000000000000, 0.07999999999999998779 ) ) ;
#43 = DIRECTION ( 'NONE',  ( -1.000000000000000000, -0.000000000000000000, -0.000000000000000000 ) ) ;
#44 = PLANE ( 'NONE',  #2 ) ;
#45 = MANIFOLD_SOLID_BREP ( 'Boss-Extrude1', #113 ) ;
#46 = LENGTH_MEASURE_WITH_UNIT ( LENGTH_MEASURE( 0.02539999999999999897 ), #19 );
#47 = UNCERTAINTY_MEASURE_WITH_UNIT (LENGTH_MEASURE( 1.000000000000000082E-05 ), #50, 'distance_accuracy_value', 'NONE');
#48 = ADVANCED_FACE ( 'NONE', ( #109 ), #44, .F. ) ;
#49 = DIRECTION ( 'NONE',  ( 1.000000000000000000, 0.000000000000000000, 0.000000000000000000 ) ) ;
#50 =( CONVERSION_BASED_UNIT ( 'INCH', #46 ) LENGTH_UNIT ( ) NAMED_UNIT ( #36 ) );
#51 = COLOUR_RGB ( '',0.000000000000000000, 0.6941176470588235059, 1.000000000000000000 ) ;
#52 = AXIS2_PLACEMENT_3D ( 'NONE', #116, #140, #57 ) ;
#53 = SURFACE_STYLE_USAGE ( .BOTH. , #80 ) ;
#54 = ORIENTED_EDGE ( 'NONE', *, *, #37, .F. ) ;
#55 = DIRECTION ( 'NONE',  ( 1.000000000000000000, 0.000000000000000000, 0.000000000000000000 ) ) ;
#56 =( NAMED_UNIT ( * ) PLANE_ANGLE_UNIT ( ) SI_UNIT ( $, .RADIAN. ) );
#57 = DIRECTION ( 'NONE',  ( 0.000000000000000000, 0.000000000000000000, -1.000000000000000000 ) ) ;
#58 =( GEOMETRIC_REPRESENTATION_CONTEXT ( 3 ) GLOBAL_UNCERTAINTY_ASSIGNED_CONTEXT ( ( #47 ) ) GLOBAL_UNIT_ASSIGNED_CONTEXT ( ( #50, #120, #130 ) ) REPRESENTATION_CONTEXT ( 'NONE', 'WORKASPACE' ) );
#59 = FACE_OUTER_BOUND ( 'NONE', #146, .T. ) ;
#60 = ORIENTED_EDGE ( 'NONE', *, *, #75, .F. ) ;
#61 = CARTESIAN_POINT ( 'NONE',  ( 3.000000000000000444, 0.000000000000000000, 0.000000000000000000 ) ) ;
#62 = AXIS2_PLACEMENT_3D ( 'NONE', #108, #31, #128 ) ;
#63 = EDGE_LOOP ( 'NONE', ( #124, #78 ) ) ;
#64 = EDGE_CURVE ( 'NONE', #135, #105, #102, .T. ) ;
#65 = ORIENTED_EDGE ( 'NONE', *, *, #64, .T. ) ;
#66 = APPLICATION_PROTOCOL_DEFINITION ( 'draft international standard', 'automotive_design', 1998, #142 ) ;
#67 = LINE ( 'NONE', #117, #121 ) ;
#68 = CARTESIAN_POINT ( 'NONE',  ( 3.000000000000000444, 0.000000000000000000, 0.000000000000000000 ) ) ;
#69 = VERTEX_POINT ( 'NONE', #17 ) ;
#70 = SURFACE_STYLE_FILL_AREA ( #136 ) ;
#71 = DIMENSIONAL_EXPONENTS ( 1.000000000000000000, 0.000000000000000000, 0.000000000000000000, 0.000000000000000000, 0.000000000000000000, 0.000000000000000000, 0.000000000000000000 ) ;
#72 = VERTEX_POINT ( 'NONE', #141 ) ;
#73 = DIMENSIONAL_EXPONENTS ( 1.000000000000000000, 0.000000000000000000, 0.000000000000000000, 0.000000000000000000, 0.000000000000000000, 0.000000000000000000, 0.000000000000000000 ) ;
#74 = ORIENTED_EDGE ( 'NONE', *, *, #32, .F. ) ;
#75 = EDGE_CURVE ( 'NONE', #105, #72, #67, .T. ) ;
#76 = PRESENTATION_LAYER_ASSIGNMENT (  '', '', ( #13 ) ) ;
#77 = SURFACE_STYLE_USAGE ( .BOTH. , #122 ) ;
#78 = ORIENTED_EDGE ( 'NONE', *, *, #4, .F. ) ;
#79 = ORIENTED_EDGE ( 'NONE', *, *, #64, .F. ) ;
#80 = SURFACE_SIDE_STYLE ('',( #147 ) ) ;
#81 =( NAMED_UNIT ( * ) PLANE_ANGLE_UNIT ( ) SI_UNIT ( $, .RADIAN. ) );
#82 = AXIS2_PLACEMENT_3D ( 'NONE', #61, #3, #98 ) ;
#83 =( GEOMETRIC_REPRESENTATION_CONTEXT ( 3 ) GLOBAL_UNCERTAINTY_ASSIGNED_CONTEXT ( ( #20 ) ) GLOBAL_UNIT_ASSIGNED_CONTEXT ( ( #111, #56, #84 ) ) REPRESENTATION_CONTEXT ( 'NONE', 'WORKASPACE' ) );
#84 =( NAMED_UNIT ( * ) SI_UNIT ( $, .STERADIAN. ) SOLID_ANGLE_UNIT ( ) );
#85 = FACE_OUTER_BOUND ( 'NONE', #123, .T. ) ;
#86 = AXIS2_PLACEMENT_3D ( 'NONE', #114, #40, #12 ) ;
#87 = UNCERTAINTY_MEASURE_WITH_UNIT (LENGTH_MEASURE( 1.000000000000000082E-05 ), #38, 'distance_accuracy_value', 'NONE');
#88 = ORIENTED_EDGE ( 'NONE', *, *, #24, .T. ) ;
#89 = ADVANCED_FACE ( 'NONE', ( #59 ), #8, .T. ) ;
#90 = EDGE_LOOP ( 'NONE', ( #60, #79, #138, #88 ) ) ;
#91 = LENGTH_MEASURE_WITH_UNIT ( LENGTH_MEASURE( 0.02539999999999999897 ), #29 );
#92 = LINE ( 'NONE', #42, #21 ) ;
#93 = DIRECTION ( 'NONE',  ( 0.000000000000000000, 0.000000000000000000, 1.000000000000000000 ) ) ;
#94 = STYLED_ITEM ( 'NONE', ( #126 ), #16 ) ;
#95 = FACE_OUTER_BOUND ( 'NONE', #90, .T. ) ;
#96 = DIRECTION ( 'NONE',  ( 0.000000000000000000, 0.000000000000000000, 1.000000000000000000 ) ) ;
#97 = AXIS2_PLACEMENT_3D ( 'NONE', #6, #55, #107 ) ;
#98 = DIRECTION ( 'NONE',  ( 0.000000000000000000, 0.000000000000000000, 1.000000000000000000 ) ) ;
#99 = CARTESIAN_POINT ( 'NONE',  ( -3.000000000000000444, 0.000000000000000000, 0.000000000000000000 ) ) ;
#100 = DIRECTION ( 'NONE',  ( 0.000000000000000000, 0.000000000000000000, -1.000000000000000000 ) ) ;
#101 = PRODUCT_DEFINITION_SHAPE ( 'NONE', 'NONE',  #14 ) ;
#102 = CIRCLE ( 'NONE', #33, 0.07999999999999998779 ) ;
#103 = CARTESIAN_POINT ( 'NONE',  ( 0.000000000000000000, 0.000000000000000000, 0.000000000000000000 ) ) ;
#104 = PRESENTATION_STYLE_ASSIGNMENT (( #53 ) ) ;
#105 = VERTEX_POINT ( 'NONE', #35 ) ;
#106 = MECHANICAL_DESIGN_GEOMETRIC_PRESENTATION_REPRESENTATION (  '', ( #13 ), #58 ) ;
#107 = DIRECTION ( 'NONE',  ( 0.000000000000000000, 0.000000000000000000, -1.000000000000000000 ) ) ;
#108 = CARTESIAN_POINT ( 'NONE',  ( -3.000000000000000444, 0.000000000000000000, 0.000000000000000000 ) ) ;
#109 = FACE_OUTER_BOUND ( 'NONE', #63, .T. ) ;
#110 = CYLINDRICAL_SURFACE ( 'NONE', #82, 0.07999999999999998779 ) ;
#111 =( CONVERSION_BASED_UNIT ( 'INCH', #7 ) LENGTH_UNIT ( ) NAMED_UNIT ( #71 ) );
#112 =( NAMED_UNIT ( * ) SI_UNIT ( $, .STERADIAN. ) SOLID_ANGLE_UNIT ( ) );
#113 = CLOSED_SHELL ( 'NONE', ( #115, #41, #89, #48 ) ) ;
#114 = CARTESIAN_POINT ( 'NONE',  ( 3.000000000000000444, 0.000000000000000000, 0.000000000000000000 ) ) ;
#115 = ADVANCED_FACE ( 'NONE', ( #85 ), #110, .T. ) ;
#116 = CARTESIAN_POINT ( 'NONE',  ( 3.000000000000000444, 0.000000000000000000, 0.000000000000000000 ) ) ;
#117 = CARTESIAN_POINT ( 'NONE',  ( 3.000000000000000444, 9.797174393178820912E-18, -0.07999999999999998779 ) ) ;
#118 = PRODUCT_DEFINITION_FORMATION_WITH_SPECIFIED_SOURCE ( 'ANY', '', #23, .NOT_KNOWN. ) ;
#119 = PRODUCT_DEFINITION_CONTEXT ( 'detailed design', #142, 'design' ) ;
#120 =( NAMED_UNIT ( * ) PLANE_ANGLE_UNIT ( ) SI_UNIT ( $, .RADIAN. ) );
#121 = VECTOR ( 'NONE', #9, 39.37007874015748143 ) ;
#122 = SURFACE_SIDE_STYLE ('',( #70 ) ) ;
#123 = EDGE_LOOP ( 'NONE', ( #74, #11, #25, #54 ) ) ;
#124 = ORIENTED_EDGE ( 'NONE', *, *, #24, .F. ) ;
#125 = AXIS2_PLACEMENT_3D ( 'NONE', #5, #43, #96 ) ;
#126 = PRESENTATION_STYLE_ASSIGNMENT (( #77 ) ) ;
#127 = DIRECTION ( 'NONE',  ( 1.000000000000000000, 0.000000000000000000, 0.000000000000000000 ) ) ;
#128 = DIRECTION ( 'NONE',  ( 0.000000000000000000, 0.000000000000000000, -1.000000000000000000 ) ) ;
#129 = COLOUR_RGB ( '',0.000000000000000000, 0.6941176470588235059, 1.000000000000000000 ) ;
#130 =( NAMED_UNIT ( * ) SI_UNIT ( $, .STERADIAN. ) SOLID_ANGLE_UNIT ( ) );
#131 = APPLICATION_PROTOCOL_DEFINITION ( 'draft international standard', 'automotive_design', 1998, #18 ) ;
#132 = CARTESIAN_POINT ( 'NONE',  ( 3.000000000000000444, 0.000000000000000000, 0.07999999999999998779 ) ) ;
#133 = CIRCLE ( 'NONE', #97, 0.07999999999999998779 ) ;
#134 = FILL_AREA_STYLE_COLOUR ( '', #51 ) ;
#135 = VERTEX_POINT ( 'NONE', #132 ) ;
#136 = FILL_AREA_STYLE ('',( #134 ) ) ;
#137 = SHAPE_DEFINITION_REPRESENTATION ( #101, #16 ) ;
#138 = ORIENTED_EDGE ( 'NONE', *, *, #37, .T. ) ;
#139 = FILL_AREA_STYLE_COLOUR ( '', #129 ) ;
#140 = DIRECTION ( 'NONE',  ( 1.000000000000000000, 0.000000000000000000, 0.000000000000000000 ) ) ;
#141 = CARTESIAN_POINT ( 'NONE',  ( -3.000000000000000444, 9.797174393178820912E-18, -0.07999999999999998779 ) ) ;
#142 = APPLICATION_CONTEXT ( 'automotive_design' ) ;
#143 =( LENGTH_UNIT ( ) NAMED_UNIT ( * ) SI_UNIT ( $, .METRE. ) );
#144 = PRODUCT_CONTEXT ( 'NONE', #18, 'mechanical' ) ;
#145 = PRODUCT_RELATED_PRODUCT_CATEGORY ( 'part', '', ( #23 ) ) ;
#146 = EDGE_LOOP ( 'NONE', ( #65, #27 ) ) ;
#147 = SURFACE_STYLE_FILL_AREA ( #28 ) ;
#148 = CIRCLE ( 'NONE', #86, 0.07999999999999998779 ) ;
#149 = CYLINDRICAL_SURFACE ( 'NONE', #125, 0.07999999999999998779 ) ;
ENDSEC;
END-ISO-10303-21;
