ISO-10303-21;
HEADER;
FILE_DESCRIPTION (( 'STEP AP203' ),
    '1' );
FILE_NAME ('SDH-160.STEP',
    '2006-06-30T18:54:45',
    ( ' ' ),
    ( ' ' ),
    'SwSTEP 2.0',
    'SolidWorks 2005354',
    '' );
FILE_SCHEMA (( 'CONFIG_CONTROL_DESIGN' ));
ENDSEC;

DATA;
#1 = PERSON_AND_ORGANIZATION ( #94, #2 ) ;
#2 = ORGANIZATION ( 'UNSPECIFIED', 'UNSPECIFIED', '' ) ;
#3 = CC_DESIGN_SECURITY_CLASSIFICATION ( #24, ( #43 ) ) ;
#4 = CC_DESIGN_APPROVAL ( #12, ( #24 ) ) ;
#5 = APPROVAL_DATE_TIME ( #6, #12 ) ;
#6 = DATE_AND_TIME ( #7, #8 ) ;
#7 = CALENDAR_DATE ( 2006, 30, 6 ) ;
#8 = LOCAL_TIME ( 14, 54, 45.00000000000000000, #9 ) ;
#9 = COORDINATED_UNIVERSAL_TIME_OFFSET ( 5, 0, .BEHIND. ) ;
#10 = APPROVAL_PERSON_ORGANIZATION ( #14, #12, #11 ) ;
#11 = APPROVAL_ROLE ( '' ) ;
#12 = APPROVAL ( #13, 'UNSPECIFIED' ) ;
#13 = APPROVAL_STATUS ( 'not_yet_approved' ) ;
#14 = PERSON_AND_ORGANIZATION ( #94, #2 ) ;
#15 = CC_DESIGN_DATE_AND_TIME_ASSIGNMENT ( #17, #16, ( #24 ) ) ;
#16 = DATE_TIME_ROLE ( 'classification_date' ) ;
#17 = DATE_AND_TIME ( #18, #19 ) ;
#18 = CALENDAR_DATE ( 2006, 30, 6 ) ;
#19 = LOCAL_TIME ( 14, 54, 45.00000000000000000, #20 ) ;
#20 = COORDINATED_UNIVERSAL_TIME_OFFSET ( 5, 0, .BEHIND. ) ;
#21 = CC_DESIGN_PERSON_AND_ORGANIZATION_ASSIGNMENT ( #23, #22, ( #24 ) ) ;
#22 = PERSON_AND_ORGANIZATION_ROLE ( 'classification_officer' ) ;
#23 = PERSON_AND_ORGANIZATION ( #94, #2 ) ;
#24 = SECURITY_CLASSIFICATION ( '', '', #25 ) ;
#25 = SECURITY_CLASSIFICATION_LEVEL ( 'unclassified' ) ;
#26 = CC_DESIGN_PERSON_AND_ORGANIZATION_ASSIGNMENT ( #28, #27, ( #43 ) ) ;
#27 = PERSON_AND_ORGANIZATION_ROLE ( 'design_supplier' ) ;
#28 = PERSON_AND_ORGANIZATION ( #94, #2 ) ;
#29 = CC_DESIGN_PERSON_AND_ORGANIZATION_ASSIGNMENT ( #31, #30, ( #43 ) ) ;
#30 = PERSON_AND_ORGANIZATION_ROLE ( 'creator' ) ;
#31 = PERSON_AND_ORGANIZATION ( #94, #2 ) ;
#32 = CC_DESIGN_APPROVAL ( #40, ( #43 ) ) ;
#33 = APPROVAL_DATE_TIME ( #34, #40 ) ;
#34 = DATE_AND_TIME ( #35, #36 ) ;
#35 = CALENDAR_DATE ( 2006, 30, 6 ) ;
#36 = LOCAL_TIME ( 14, 54, 45.00000000000000000, #37 ) ;
#37 = COORDINATED_UNIVERSAL_TIME_OFFSET ( 5, 0, .BEHIND. ) ;
#38 = APPROVAL_PERSON_ORGANIZATION ( #42, #40, #39 ) ;
#39 = APPROVAL_ROLE ( '' ) ;
#40 = APPROVAL ( #41, 'UNSPECIFIED' ) ;
#41 = APPROVAL_STATUS ( 'not_yet_approved' ) ;
#42 = PERSON_AND_ORGANIZATION ( #94, #2 ) ;
#43 = PRODUCT_DEFINITION_FORMATION_WITH_SPECIFIED_SOURCE ( 'ANY', '', #95, .NOT_KNOWN. ) ;
#44 = SHAPE_DEFINITION_REPRESENTATION ( #353, #152 ) ;
#45 = ORIENTED_EDGE ( 'NONE', *, *, #86, .T. ) ;
#46 = ORIENTED_EDGE ( 'NONE', *, *, #60, .F. ) ;
#47 = EDGE_LOOP ( 'NONE', ( #48, #49, #45, #99 ) ) ;
#48 = ORIENTED_EDGE ( 'NONE', *, *, #124, .F. ) ;
#49 = ORIENTED_EDGE ( 'NONE', *, *, #173, .F. ) ;
#50 = ORIENTED_EDGE ( 'NONE', *, *, #83, .F. ) ;
#51 = ORIENTED_EDGE ( 'NONE', *, *, #78, .T. ) ;
#52 = ORIENTED_EDGE ( 'NONE', *, *, #101, .T. ) ;
#53 = ORIENTED_EDGE ( 'NONE', *, *, #108, .F. ) ;
#54 = ADVANCED_FACE ( 'NONE', ( #346 ), #343, .F. ) ;
#55 = EDGE_LOOP ( 'NONE', ( #46, #61 ) ) ;
#56 = ORIENTED_EDGE ( 'NONE', *, *, #62, .T. ) ;
#57 = ORIENTED_EDGE ( 'NONE', *, *, #98, .F. ) ;
#58 = ORIENTED_EDGE ( 'NONE', *, *, #73, .F. ) ;
#59 = ADVANCED_FACE ( 'NONE', ( #344 ), #339, .T. ) ;
#60 = EDGE_CURVE ( 'NONE', #121, #92, #334, .T. ) ;
#61 = ORIENTED_EDGE ( 'NONE', *, *, #89, .F. ) ;
#62 = EDGE_CURVE ( 'NONE', #119, #194, #329, .T. ) ;
#63 = ADVANCED_FACE ( 'NONE', ( #325, #324 ), #323, .T. ) ;
#64 = ORIENTED_EDGE ( 'NONE', *, *, #193, .T. ) ;
#65 = EDGE_LOOP ( 'NONE', ( #68, #57, #56, #64 ) ) ;
#66 = EDGE_CURVE ( 'NONE', #112, #191, #145, .T. ) ;
#67 = ADVANCED_FACE ( 'NONE', ( #141 ), #140, .T. ) ;
#68 = ORIENTED_EDGE ( 'NONE', *, *, #66, .F. ) ;
#69 = VERTEX_POINT ( 'NONE', #135 ) ;
#70 = ORIENTED_EDGE ( 'NONE', *, *, #78, .F. ) ;
#71 = ORIENTED_EDGE ( 'NONE', *, *, #115, .T. ) ;
#72 = VERTEX_POINT ( 'NONE', #134 ) ;
#73 = EDGE_CURVE ( 'NONE', #116, #72, #133, .T. ) ;
#74 = EDGE_CURVE ( 'NONE', #75, #69, #321, .T. ) ;
#75 = VERTEX_POINT ( 'NONE', #317 ) ;
#76 = ORIENTED_EDGE ( 'NONE', *, *, #77, .T. ) ;
#77 = EDGE_CURVE ( 'NONE', #75, #72, #316, .T. ) ;
#78 = EDGE_CURVE ( 'NONE', #69, #84, #312, .T. ) ;
#79 = ORIENTED_EDGE ( 'NONE', *, *, #74, .F. ) ;
#80 = ADVANCED_FACE ( 'NONE', ( #308 ), #307, .F. ) ;
#81 = EDGE_LOOP ( 'NONE', ( #82, #53, #58, #71 ) ) ;
#82 = ORIENTED_EDGE ( 'NONE', *, *, #83, .T. ) ;
#83 = EDGE_CURVE ( 'NONE', #113, #84, #302, .T. ) ;
#84 = VERTEX_POINT ( 'NONE', #298 ) ;
#85 = ADVANCED_FACE ( 'NONE', ( #297 ), #295, .F. ) ;
#86 = EDGE_CURVE ( 'NONE', #122, #121, #290, .T. ) ;
#87 = EDGE_LOOP ( 'NONE', ( #88, #114, #117, #120 ) ) ;
#88 = ORIENTED_EDGE ( 'NONE', *, *, #111, .T. ) ;
#89 = EDGE_CURVE ( 'NONE', #92, #121, #257, .T. ) ;
#90 = VERTEX_POINT ( 'NONE', #252 ) ;
#91 = EDGE_CURVE ( 'NONE', #90, #122, #251, .T. ) ;
#92 = VERTEX_POINT ( 'NONE', #246 ) ;
#93 = EDGE_LOOP ( 'NONE', ( #97, #123, #125, #96 ) ) ;
#94 = PERSON ( 'UNSPECIFIED', 'UNSPECIFIED', 'UNSPECIFIED', ('UNSPECIFIED'), ('UNSPECIFIED'), ('UNSPECIFIED') ) ;
#95 = PRODUCT ( 'SDH-160', 'SDH-160', '', ( #128 ) ) ;
#96 = ORIENTED_EDGE ( 'NONE', *, *, #86, .F. ) ;
#97 = ORIENTED_EDGE ( 'NONE', *, *, #91, .F. ) ;
#98 = EDGE_CURVE ( 'NONE', #119, #112, #245, .T. ) ;
#99 = ORIENTED_EDGE ( 'NONE', *, *, #60, .T. ) ;
#100 = ORIENTED_EDGE ( 'NONE', *, *, #101, .F. ) ;
#101 = EDGE_CURVE ( 'NONE', #102, #69, #241, .T. ) ;
#102 = VERTEX_POINT ( 'NONE', #237 ) ;
#103 = VERTEX_POINT ( 'NONE', #236 ) ;
#104 = EDGE_LOOP ( 'NONE', ( #105, #106, #107, #349, #350, #351 ) ) ;
#105 = ORIENTED_EDGE ( 'NONE', *, *, #118, .T. ) ;
#106 = ORIENTED_EDGE ( 'NONE', *, *, #73, .T. ) ;
#107 = ORIENTED_EDGE ( 'NONE', *, *, #77, .F. ) ;
#108 = EDGE_CURVE ( 'NONE', #72, #84, #235, .T. ) ;
#109 = EDGE_LOOP ( 'NONE', ( #70, #79, #76, #179 ) ) ;
#110 = CLOSED_SHELL ( 'NONE', ( #67, #85, #63, #352, #187, #80, #59, #127, #180, #54 ) ) ;
#111 = EDGE_CURVE ( 'NONE', #112, #113, #231, .T. ) ;
#112 = VERTEX_POINT ( 'NONE', #168 ) ;
#113 = VERTEX_POINT ( 'NONE', #167 ) ;
#114 = ORIENTED_EDGE ( 'NONE', *, *, #115, .F. ) ;
#115 = EDGE_CURVE ( 'NONE', #116, #113, #166, .T. ) ;
#116 = VERTEX_POINT ( 'NONE', #162 ) ;
#117 = ORIENTED_EDGE ( 'NONE', *, *, #118, .F. ) ;
#118 = EDGE_CURVE ( 'NONE', #119, #116, #161, .T. ) ;
#119 = VERTEX_POINT ( 'NONE', #157 ) ;
#120 = ORIENTED_EDGE ( 'NONE', *, *, #98, .T. ) ;
#121 = VERTEX_POINT ( 'NONE', #156 ) ;
#122 = VERTEX_POINT ( 'NONE', #229 ) ;
#123 = ORIENTED_EDGE ( 'NONE', *, *, #124, .T. ) ;
#124 = EDGE_CURVE ( 'NONE', #90, #92, #228, .T. ) ;
#125 = ORIENTED_EDGE ( 'NONE', *, *, #89, .T. ) ;
#126 = MANIFOLD_SOLID_BREP ( 'NONE', #110 ) ;
#127 = ADVANCED_FACE ( 'NONE', ( #224 ), #223, .F. ) ;
#128 = MECHANICAL_CONTEXT ( 'NONE', #130, 'mechanical' ) ;
#129 = APPLICATION_PROTOCOL_DEFINITION ( 'international standard', 'config_control_design', 1994, #130 ) ;
#130 = APPLICATION_CONTEXT ( 'configuration controlled 3d designs of mechanical parts and assemblies' ) ;
#131 = DIRECTION ( 'NONE',  ( 0.5329387100211930800, -4.778256141280982300E-031, 0.8461538461538461500 ) ) ;
#132 = CARTESIAN_POINT ( 'NONE',  ( -0.1105000000000022800, 0.07999999999999994600, 7.649174382259936200E-015 ) ) ;
#133 = LINE ( 'NONE', #132, #322 ) ;
#134 = CARTESIAN_POINT ( 'NONE',  ( -0.05161027254266374600, 0.07999999999999996000, 0.09350000000000380200 ) ) ;
#135 = CARTESIAN_POINT ( 'NONE',  ( 0.05161027254265855600, -0.08000000000000000200, 0.09350000000000051300 ) ) ;
#136 = DIRECTION ( 'NONE',  ( -1.000000000000000000, 3.155443620884047200E-030, 0.0000000000000000000 ) ) ;
#137 = DIRECTION ( 'NONE',  ( -2.333630729197928100E-061, -7.395570986446985700E-032, -1.000000000000000000 ) ) ;
#138 = CARTESIAN_POINT ( 'NONE',  ( -0.05161027254266346800, 0.08000000000000000200, -0.09349999999999943100 ) ) ;
#139 = AXIS2_PLACEMENT_3D ( 'NONE', #138, #137, #136 ) ;
#140 = PLANE ( 'NONE',  #139 ) ;
#141 = FACE_OUTER_BOUND ( 'NONE', #65, .T. ) ;
#142 = DIRECTION ( 'NONE',  ( 1.000000000000000000, -3.155443620884047200E-030, 0.0000000000000000000 ) ) ;
#143 = VECTOR ( 'NONE', #142, 39.37007874015748100 ) ;
#144 = CARTESIAN_POINT ( 'NONE',  ( -0.05161027254266183100, -0.08000000000000215300, -0.09349999999999997200 ) ) ;
#145 = LINE ( 'NONE', #144, #143 ) ;
#146 = DIRECTION ( 'NONE',  ( 0.0000000000000000000, 7.395570986446985700E-032, 1.000000000000000000 ) ) ;
#147 = DIRECTION ( 'NONE',  ( -2.637753651832758200E-030, 1.000000000000000000, -7.395570986446985700E-032 ) ) ;
#148 = CARTESIAN_POINT ( 'NONE',  ( -0.1105000000000022800, 0.07999999999999994600, 7.649174382259936200E-015 ) ) ;
#149 = AXIS2_PLACEMENT_3D ( 'NONE', #148, #147, #146 ) ;
#150 = DIRECTION ( 'NONE',  ( 0.0000000000000000000, 0.0000000000000000000, 1.000000000000000000 ) ) ;
#151 = AXIS2_PLACEMENT_3D ( 'NONE', #348, #150, #198 ) ;
#152 = ADVANCED_BREP_SHAPE_REPRESENTATION ( 'SDH-160', ( #126, #151 ), #153 ) ;
#153 =( GEOMETRIC_REPRESENTATION_CONTEXT ( 3 ) GLOBAL_UNCERTAINTY_ASSIGNED_CONTEXT ( ( #154 ) ) GLOBAL_UNIT_ASSIGNED_CONTEXT ( ( #261, #260, #155 ) ) REPRESENTATION_CONTEXT ( 'NONE', 'WORKASPACE' ) );
#154 = UNCERTAINTY_MEASURE_WITH_UNIT (LENGTH_MEASURE( 1.000000000000000100E-005 ), #261, 'distance_accuracy_value', 'NONE');
#155 =( NAMED_UNIT ( * ) SI_UNIT ( $, .STERADIAN. ) SOLID_ANGLE_UNIT ( ) );
#156 = CARTESIAN_POINT ( 'NONE',  ( 0.0000000000000000000, 0.07999999999999996000, 0.04449999999999948400 ) ) ;
#157 = CARTESIAN_POINT ( 'NONE',  ( -0.05161027254266346800, 0.08000000000000000200, -0.09349999999999943100 ) ) ;
#158 = DIRECTION ( 'NONE',  ( -0.5329387100211927500, 1.676329423594647300E-030, 0.8461538461538462600 ) ) ;
#159 = VECTOR ( 'NONE', #158, 39.37007874015748100 ) ;
#160 = CARTESIAN_POINT ( 'NONE',  ( -0.05161027254266346800, 0.08000000000000000200, -0.09349999999999943100 ) ) ;
#161 = LINE ( 'NONE', #160, #159 ) ;
#162 = CARTESIAN_POINT ( 'NONE',  ( -0.1105000000000022800, 0.07999999999999994600, 7.649174382259936200E-015 ) ) ;
#163 = DIRECTION ( 'NONE',  ( 2.637753651832758200E-030, -1.000000000000000000, -1.429810390713083900E-030 ) ) ;
#164 = VECTOR ( 'NONE', #163, 39.37007874015748100 ) ;
#165 = CARTESIAN_POINT ( 'NONE',  ( -0.1105000000000022800, 0.07999999999999994600, 7.649174382259936200E-015 ) ) ;
#166 = LINE ( 'NONE', #165, #164 ) ;
#167 = CARTESIAN_POINT ( 'NONE',  ( -0.1105000000000003600, -0.08000000000000211100, 5.463695987328526400E-015 ) ) ;
#168 = CARTESIAN_POINT ( 'NONE',  ( -0.05161027254266183100, -0.08000000000000215300, -0.09349999999999997200 ) ) ;
#169 = DIRECTION ( 'NONE',  ( -0.5329387100211927500, 1.676329423594647300E-030, 0.8461538461538462600 ) ) ;
#170 = VECTOR ( 'NONE', #169, 39.37007874015748100 ) ;
#171 = EDGE_LOOP ( 'NONE', ( #172, #174 ) ) ;
#172 = ORIENTED_EDGE ( 'NONE', *, *, #173, .T. ) ;
#173 = EDGE_CURVE ( 'NONE', #122, #90, #222, .T. ) ;
#174 = ORIENTED_EDGE ( 'NONE', *, *, #91, .T. ) ;
#175 = EDGE_LOOP ( 'NONE', ( #176, #177, #178, #52, #51, #50 ) ) ;
#176 = ORIENTED_EDGE ( 'NONE', *, *, #111, .F. ) ;
#177 = ORIENTED_EDGE ( 'NONE', *, *, #66, .T. ) ;
#178 = ORIENTED_EDGE ( 'NONE', *, *, #190, .T. ) ;
#179 = ORIENTED_EDGE ( 'NONE', *, *, #108, .T. ) ;
#180 = ADVANCED_FACE ( 'NONE', ( #213 ), #212, .T. ) ;
#181 = EDGE_LOOP ( 'NONE', ( #100, #182, #184, #186 ) ) ;
#182 = ORIENTED_EDGE ( 'NONE', *, *, #183, .F. ) ;
#183 = EDGE_CURVE ( 'NONE', #103, #102, #207, .T. ) ;
#184 = ORIENTED_EDGE ( 'NONE', *, *, #185, .T. ) ;
#185 = EDGE_CURVE ( 'NONE', #103, #75, #203, .T. ) ;
#186 = ORIENTED_EDGE ( 'NONE', *, *, #74, .T. ) ;
#187 = ADVANCED_FACE ( 'NONE', ( #199 ), #289, .T. ) ;
#188 = EDGE_LOOP ( 'NONE', ( #189, #192, #195, #197 ) ) ;
#189 = ORIENTED_EDGE ( 'NONE', *, *, #190, .F. ) ;
#190 = EDGE_CURVE ( 'NONE', #191, #102, #284, .T. ) ;
#191 = VERTEX_POINT ( 'NONE', #280 ) ;
#192 = ORIENTED_EDGE ( 'NONE', *, *, #193, .F. ) ;
#193 = EDGE_CURVE ( 'NONE', #194, #191, #279, .T. ) ;
#194 = VERTEX_POINT ( 'NONE', #275 ) ;
#195 = ORIENTED_EDGE ( 'NONE', *, *, #196, .T. ) ;
#196 = EDGE_CURVE ( 'NONE', #194, #103, #274, .T. ) ;
#197 = ORIENTED_EDGE ( 'NONE', *, *, #183, .T. ) ;
#198 = DIRECTION ( 'NONE',  ( 1.000000000000000000, 0.0000000000000000000, 0.0000000000000000000 ) ) ;
#199 = FACE_OUTER_BOUND ( 'NONE', #188, .T. ) ;
#200 = DIRECTION ( 'NONE',  ( -0.5329387100211927500, 1.676329423594647300E-030, 0.8461538461538462600 ) ) ;
#201 = VECTOR ( 'NONE', #200, 39.37007874015748100 ) ;
#202 = CARTESIAN_POINT ( 'NONE',  ( 0.1104999999999940800, 0.07999999999999996000, 3.278217592397115900E-015 ) ) ;
#203 = LINE ( 'NONE', #202, #201 ) ;
#204 = DIRECTION ( 'NONE',  ( 2.637753651832758200E-030, -1.000000000000000000, -1.429810390713083900E-030 ) ) ;
#205 = VECTOR ( 'NONE', #204, 39.37007874015748100 ) ;
#206 = CARTESIAN_POINT ( 'NONE',  ( 0.1104999999999940800, 0.07999999999999996000, 3.278217592397115900E-015 ) ) ;
#207 = LINE ( 'NONE', #206, #205 ) ;
#208 = DIRECTION ( 'NONE',  ( 0.5329387100211928600, -1.676329423594647300E-030, -0.8461538461538463700 ) ) ;
#209 = DIRECTION ( 'NONE',  ( 0.8461538461538463700, -2.391234618951186100E-030, 0.5329387100211928600 ) ) ;
#210 = CARTESIAN_POINT ( 'NONE',  ( 0.1104999999999940800, 0.07999999999999996000, 3.278217592397115900E-015 ) ) ;
#211 = AXIS2_PLACEMENT_3D ( 'NONE', #210, #209, #208 ) ;
#212 = PLANE ( 'NONE',  #211 ) ;
#213 = FACE_OUTER_BOUND ( 'NONE', #181, .T. ) ;
#214 = DIRECTION ( 'NONE',  ( 0.0000000000000000000, 0.0000000000000000000, 1.000000000000000000 ) ) ;
#215 = DIRECTION ( 'NONE',  ( -2.637753651832758200E-030, 1.000000000000000000, 1.429810390713083900E-030 ) ) ;
#216 = CARTESIAN_POINT ( 'NONE',  ( 0.0000000000000000000, -0.08000000000000324900, 0.0000000000000000000 ) ) ;
#217 = AXIS2_PLACEMENT_3D ( 'NONE', #216, #215, #214 ) ;
#218 = DIRECTION ( 'NONE',  ( 0.0000000000000000000, 0.0000000000000000000, 1.000000000000000000 ) ) ;
#219 = DIRECTION ( 'NONE',  ( -2.637753651832758200E-030, 1.000000000000000000, 1.429810390713083900E-030 ) ) ;
#220 = CARTESIAN_POINT ( 'NONE',  ( 0.0000000000000000000, 0.07999999999999996000, 0.0000000000000000000 ) ) ;
#221 = AXIS2_PLACEMENT_3D ( 'NONE', #220, #219, #218 ) ;
#222 = CIRCLE ( 'NONE', #217, 0.04449999999999996300 ) ;
#223 = CYLINDRICAL_SURFACE ( 'NONE', #221, 0.04449999999999972000 ) ;
#224 = FACE_OUTER_BOUND ( 'NONE', #93, .T. ) ;
#225 = DIRECTION ( 'NONE',  ( -2.637753651832758200E-030, 1.000000000000000000, 1.429810390713083900E-030 ) ) ;
#226 = VECTOR ( 'NONE', #225, 39.37007874015748100 ) ;
#227 = CARTESIAN_POINT ( 'NONE',  ( 5.449678256205688100E-018, 0.07999999999999996000, -0.04449999999999972000 ) ) ;
#228 = LINE ( 'NONE', #227, #226 ) ;
#229 = CARTESIAN_POINT ( 'NONE',  ( 0.0000000000000000000, -0.08000000000000324900, 0.04449999999999996300 ) ) ;
#230 = CARTESIAN_POINT ( 'NONE',  ( -0.05161027254266183100, -0.08000000000000215300, -0.09349999999999997200 ) ) ;
#231 = LINE ( 'NONE', #230, #170 ) ;
#232 = DIRECTION ( 'NONE',  ( 2.637753651832758200E-030, -1.000000000000000000, -1.429810390713083900E-030 ) ) ;
#233 = VECTOR ( 'NONE', #232, 39.37007874015748100 ) ;
#234 = CARTESIAN_POINT ( 'NONE',  ( -0.05161027254266374600, 0.07999999999999996000, 0.09350000000000380200 ) ) ;
#235 = LINE ( 'NONE', #234, #233 ) ;
#236 = CARTESIAN_POINT ( 'NONE',  ( 0.1104999999999940800, 0.07999999999999996000, 3.278217592397115900E-015 ) ) ;
#237 = CARTESIAN_POINT ( 'NONE',  ( 0.1104999999999992700, -0.08000000000000000200, 0.0000000000000000000 ) ) ;
#238 = DIRECTION ( 'NONE',  ( -0.5329387100211927500, 1.676329423594647300E-030, 0.8461538461538462600 ) ) ;
#239 = VECTOR ( 'NONE', #238, 39.37007874015748100 ) ;
#240 = CARTESIAN_POINT ( 'NONE',  ( 0.1104999999999992700, -0.08000000000000000200, 0.0000000000000000000 ) ) ;
#241 = LINE ( 'NONE', #240, #239 ) ;
#242 = DIRECTION ( 'NONE',  ( 2.637753651832758200E-030, -1.000000000000000000, -1.429810390713083900E-030 ) ) ;
#243 = VECTOR ( 'NONE', #242, 39.37007874015748100 ) ;
#244 = CARTESIAN_POINT ( 'NONE',  ( -0.05161027254266346800, 0.08000000000000000200, -0.09349999999999943100 ) ) ;
#245 = LINE ( 'NONE', #244, #243 ) ;
#246 = CARTESIAN_POINT ( 'NONE',  ( 5.449678256205884600E-018, 0.07999999999999996000, -0.04449999999999948400 ) ) ;
#247 = DIRECTION ( 'NONE',  ( 0.0000000000000000000, 0.0000000000000000000, 1.000000000000000000 ) ) ;
#248 = DIRECTION ( 'NONE',  ( -2.637753651832758200E-030, 1.000000000000000000, 1.429810390713083900E-030 ) ) ;
#249 = CARTESIAN_POINT ( 'NONE',  ( 0.0000000000000000000, -0.08000000000000324900, 0.0000000000000000000 ) ) ;
#250 = AXIS2_PLACEMENT_3D ( 'NONE', #249, #248, #247 ) ;
#251 = CIRCLE ( 'NONE', #250, 0.04449999999999996300 ) ;
#252 = CARTESIAN_POINT ( 'NONE',  ( 5.449678256205928500E-018, -0.08000000000000324900, -0.04449999999999996300 ) ) ;
#253 = DIRECTION ( 'NONE',  ( 0.0000000000000000000, 0.0000000000000000000, 1.000000000000000000 ) ) ;
#254 = DIRECTION ( 'NONE',  ( -2.637753651832758200E-030, 1.000000000000000000, 1.429810390713083900E-030 ) ) ;
#255 = CARTESIAN_POINT ( 'NONE',  ( 0.0000000000000000000, 0.07999999999999996000, 0.0000000000000000000 ) ) ;
#256 = AXIS2_PLACEMENT_3D ( 'NONE', #255, #254, #253 ) ;
#257 = CIRCLE ( 'NONE', #256, 0.04449999999999948400 ) ;
#258 = DIRECTION ( 'NONE',  ( -2.637753651832758200E-030, 1.000000000000000000, 1.429810390713083900E-030 ) ) ;
#259 = VECTOR ( 'NONE', #258, 39.37007874015748100 ) ;
#260 =( NAMED_UNIT ( * ) PLANE_ANGLE_UNIT ( ) SI_UNIT ( $, .RADIAN. ) );
#261 =( CONVERSION_BASED_UNIT ( 'INCH', #262 ) LENGTH_UNIT ( ) NAMED_UNIT ( #263 ) );
#262 = LENGTH_MEASURE_WITH_UNIT ( LENGTH_MEASURE( 0.02539999999999999900 ), #347 );
#263 = DIMENSIONAL_EXPONENTS ( 1.000000000000000000, 0.0000000000000000000, 0.0000000000000000000, 0.0000000000000000000, 0.0000000000000000000, 0.0000000000000000000, 0.0000000000000000000 ) ;
#264 = DIRECTION ( 'NONE',  ( 0.0000000000000000000, 7.395570986446985700E-032, 1.000000000000000000 ) ) ;
#265 = DIRECTION ( 'NONE',  ( -2.637753651832758200E-030, 1.000000000000000000, -7.395570986446985700E-032 ) ) ;
#266 = CARTESIAN_POINT ( 'NONE',  ( -0.1105000000000003600, -0.08000000000000211100, 5.463695987328526400E-015 ) ) ;
#267 = AXIS2_PLACEMENT_3D ( 'NONE', #266, #265, #264 ) ;
#268 = PLANE ( 'NONE',  #267 ) ;
#269 = FACE_OUTER_BOUND ( 'NONE', #175, .T. ) ;
#270 = FACE_BOUND ( 'NONE', #171, .T. ) ;
#271 = DIRECTION ( 'NONE',  ( 0.5329387100211930800, -4.778256141280982300E-031, 0.8461538461538461500 ) ) ;
#272 = VECTOR ( 'NONE', #271, 39.37007874015748100 ) ;
#273 = CARTESIAN_POINT ( 'NONE',  ( 0.05161027254265800800, 0.07999999999999996000, -0.09349999999999943100 ) ) ;
#274 = LINE ( 'NONE', #273, #272 ) ;
#275 = CARTESIAN_POINT ( 'NONE',  ( 0.05161027254265800800, 0.07999999999999996000, -0.09349999999999943100 ) ) ;
#276 = DIRECTION ( 'NONE',  ( 2.637753651832758200E-030, -1.000000000000000000, -1.429810390713083900E-030 ) ) ;
#277 = VECTOR ( 'NONE', #276, 39.37007874015748100 ) ;
#278 = CARTESIAN_POINT ( 'NONE',  ( 0.05161027254265800800, 0.07999999999999996000, -0.09349999999999943100 ) ) ;
#279 = LINE ( 'NONE', #278, #277 ) ;
#280 = CARTESIAN_POINT ( 'NONE',  ( 0.05161027254265800800, -0.08000000000000000200, -0.09349999999999943100 ) ) ;
#281 = DIRECTION ( 'NONE',  ( 0.5329387100211930800, -4.778256141280982300E-031, 0.8461538461538461500 ) ) ;
#282 = VECTOR ( 'NONE', #281, 39.37007874015748100 ) ;
#283 = CARTESIAN_POINT ( 'NONE',  ( 0.05161027254265800800, -0.08000000000000000200, -0.09349999999999943100 ) ) ;
#284 = LINE ( 'NONE', #283, #282 ) ;
#285 = DIRECTION ( 'NONE',  ( -0.5329387100211930800, 4.778256141280982300E-031, -0.8461538461538460300 ) ) ;
#286 = DIRECTION ( 'NONE',  ( 0.8461538461538461500, -3.303355040612984100E-030, -0.5329387100211932000 ) ) ;
#287 = CARTESIAN_POINT ( 'NONE',  ( 0.05161027254265800800, 0.07999999999999996000, -0.09349999999999943100 ) ) ;
#288 = AXIS2_PLACEMENT_3D ( 'NONE', #287, #286, #285 ) ;
#289 = PLANE ( 'NONE',  #288 ) ;
#290 = LINE ( 'NONE', #296, #259 ) ;
#291 = DIRECTION ( 'NONE',  ( 0.5329387100211928600, -1.676329423594647300E-030, -0.8461538461538463700 ) ) ;
#292 = DIRECTION ( 'NONE',  ( 0.8461538461538463700, -2.391234618951186100E-030, 0.5329387100211928600 ) ) ;
#293 = CARTESIAN_POINT ( 'NONE',  ( -0.05161027254266346800, 0.08000000000000000200, -0.09349999999999943100 ) ) ;
#294 = AXIS2_PLACEMENT_3D ( 'NONE', #293, #292, #291 ) ;
#295 = PLANE ( 'NONE',  #294 ) ;
#296 = CARTESIAN_POINT ( 'NONE',  ( 0.0000000000000000000, 0.07999999999999996000, 0.04449999999999972000 ) ) ;
#297 = FACE_OUTER_BOUND ( 'NONE', #87, .T. ) ;
#298 = CARTESIAN_POINT ( 'NONE',  ( -0.05161027254265827800, -0.08000000000000105600, 0.09350000000000106800 ) ) ;
#299 = DIRECTION ( 'NONE',  ( 0.5329387100211930800, -4.778256141280982300E-031, 0.8461538461538461500 ) ) ;
#300 = VECTOR ( 'NONE', #299, 39.37007874015748100 ) ;
#301 = CARTESIAN_POINT ( 'NONE',  ( -0.1105000000000003600, -0.08000000000000211100, 5.463695987328526400E-015 ) ) ;
#302 = LINE ( 'NONE', #301, #300 ) ;
#303 = DIRECTION ( 'NONE',  ( -0.5329387100211930800, 4.778256141280982300E-031, -0.8461538461538460300 ) ) ;
#304 = DIRECTION ( 'NONE',  ( 0.8461538461538461500, -3.303355040612984100E-030, -0.5329387100211932000 ) ) ;
#305 = CARTESIAN_POINT ( 'NONE',  ( -0.1105000000000022800, 0.07999999999999994600, 7.649174382259936200E-015 ) ) ;
#306 = AXIS2_PLACEMENT_3D ( 'NONE', #305, #304, #303 ) ;
#307 = PLANE ( 'NONE',  #306 ) ;
#308 = FACE_OUTER_BOUND ( 'NONE', #81, .T. ) ;
#309 = DIRECTION ( 'NONE',  ( -1.000000000000000000, 3.155443620884047200E-030, 0.0000000000000000000 ) ) ;
#310 = VECTOR ( 'NONE', #309, 39.37007874015748100 ) ;
#311 = CARTESIAN_POINT ( 'NONE',  ( 0.05161027254265855600, -0.08000000000000000200, 0.09350000000000051300 ) ) ;
#312 = LINE ( 'NONE', #311, #310 ) ;
#313 = DIRECTION ( 'NONE',  ( -1.000000000000000000, 3.155443620884047200E-030, 0.0000000000000000000 ) ) ;
#314 = VECTOR ( 'NONE', #313, 39.37007874015748100 ) ;
#315 = CARTESIAN_POINT ( 'NONE',  ( 0.05161027254265855600, 0.07999999999999882200, 0.09350000000000051300 ) ) ;
#316 = LINE ( 'NONE', #315, #314 ) ;
#317 = CARTESIAN_POINT ( 'NONE',  ( 0.05161027254265855600, 0.07999999999999882200, 0.09350000000000051300 ) ) ;
#318 = DIRECTION ( 'NONE',  ( 2.637753651832758200E-030, -1.000000000000000000, -1.429810390713083900E-030 ) ) ;
#319 = VECTOR ( 'NONE', #318, 39.37007874015748100 ) ;
#320 = CARTESIAN_POINT ( 'NONE',  ( 0.05161027254265855600, 0.07999999999999882200, 0.09350000000000051300 ) ) ;
#321 = LINE ( 'NONE', #320, #319 ) ;
#322 = VECTOR ( 'NONE', #131, 39.37007874015748100 ) ;
#323 = PLANE ( 'NONE',  #149 ) ;
#324 = FACE_OUTER_BOUND ( 'NONE', #104, .T. ) ;
#325 = FACE_BOUND ( 'NONE', #55, .T. ) ;
#326 = DIRECTION ( 'NONE',  ( 1.000000000000000000, -3.155443620884047200E-030, 0.0000000000000000000 ) ) ;
#327 = VECTOR ( 'NONE', #326, 39.37007874015748100 ) ;
#328 = CARTESIAN_POINT ( 'NONE',  ( -0.05161027254266346800, 0.08000000000000000200, -0.09349999999999943100 ) ) ;
#329 = LINE ( 'NONE', #328, #327 ) ;
#330 = DIRECTION ( 'NONE',  ( 0.0000000000000000000, 0.0000000000000000000, 1.000000000000000000 ) ) ;
#331 = DIRECTION ( 'NONE',  ( -2.637753651832758200E-030, 1.000000000000000000, 1.429810390713083900E-030 ) ) ;
#332 = CARTESIAN_POINT ( 'NONE',  ( 0.0000000000000000000, 0.07999999999999996000, 0.0000000000000000000 ) ) ;
#333 = AXIS2_PLACEMENT_3D ( 'NONE', #332, #331, #330 ) ;
#334 = CIRCLE ( 'NONE', #333, 0.04449999999999948400 ) ;
#335 = DIRECTION ( 'NONE',  ( 1.000000000000000000, -3.155443620884047200E-030, 0.0000000000000000000 ) ) ;
#336 = DIRECTION ( 'NONE',  ( 2.333630729197928100E-061, 7.395570986446985700E-032, 1.000000000000000000 ) ) ;
#337 = CARTESIAN_POINT ( 'NONE',  ( 0.05161027254265855600, 0.07999999999999882200, 0.09350000000000051300 ) ) ;
#338 = AXIS2_PLACEMENT_3D ( 'NONE', #337, #336, #335 ) ;
#339 = PLANE ( 'NONE',  #338 ) ;
#340 = DIRECTION ( 'NONE',  ( 0.0000000000000000000, 0.0000000000000000000, 1.000000000000000000 ) ) ;
#341 = DIRECTION ( 'NONE',  ( -2.637753651832758200E-030, 1.000000000000000000, 1.429810390713083900E-030 ) ) ;
#342 = AXIS2_PLACEMENT_3D ( 'NONE', #345, #341, #340 ) ;
#343 = CYLINDRICAL_SURFACE ( 'NONE', #342, 0.04449999999999972000 ) ;
#344 = FACE_OUTER_BOUND ( 'NONE', #109, .T. ) ;
#345 = CARTESIAN_POINT ( 'NONE',  ( 0.0000000000000000000, 0.07999999999999996000, 0.0000000000000000000 ) ) ;
#346 = FACE_OUTER_BOUND ( 'NONE', #47, .T. ) ;
#347 =( LENGTH_UNIT ( ) NAMED_UNIT ( * ) SI_UNIT ( $, .METRE. ) );
#348 = CARTESIAN_POINT ( 'NONE',  ( 0.0000000000000000000, 0.0000000000000000000, 0.0000000000000000000 ) ) ;
#349 = ORIENTED_EDGE ( 'NONE', *, *, #185, .F. ) ;
#350 = ORIENTED_EDGE ( 'NONE', *, *, #196, .F. ) ;
#351 = ORIENTED_EDGE ( 'NONE', *, *, #62, .F. ) ;
#352 = ADVANCED_FACE ( 'NONE', ( #270, #269 ), #268, .F. ) ;
#353 = PRODUCT_DEFINITION_SHAPE ( 'NONE', 'NONE',  #375 ) ;
#354 = PRODUCT_RELATED_PRODUCT_CATEGORY ( 'detail', '', ( #95 ) ) ;
#355 = CC_DESIGN_DATE_AND_TIME_ASSIGNMENT ( #357, #356, ( #375 ) ) ;
#356 = DATE_TIME_ROLE ( 'creation_date' ) ;
#357 = DATE_AND_TIME ( #358, #359 ) ;
#358 = CALENDAR_DATE ( 2006, 30, 6 ) ;
#359 = LOCAL_TIME ( 14, 54, 45.00000000000000000, #360 ) ;
#360 = COORDINATED_UNIVERSAL_TIME_OFFSET ( 5, 0, .BEHIND. ) ;
#361 = CC_DESIGN_PERSON_AND_ORGANIZATION_ASSIGNMENT ( #363, #362, ( #375 ) ) ;
#362 = PERSON_AND_ORGANIZATION_ROLE ( 'creator' ) ;
#363 = PERSON_AND_ORGANIZATION ( #94, #2 ) ;
#364 = CC_DESIGN_APPROVAL ( #372, ( #375 ) ) ;
#365 = APPROVAL_DATE_TIME ( #366, #372 ) ;
#366 = DATE_AND_TIME ( #367, #368 ) ;
#367 = CALENDAR_DATE ( 2006, 30, 6 ) ;
#368 = LOCAL_TIME ( 14, 54, 45.00000000000000000, #369 ) ;
#369 = COORDINATED_UNIVERSAL_TIME_OFFSET ( 5, 0, .BEHIND. ) ;
#370 = APPROVAL_PERSON_ORGANIZATION ( #374, #372, #371 ) ;
#371 = APPROVAL_ROLE ( '' ) ;
#372 = APPROVAL ( #373, 'UNSPECIFIED' ) ;
#373 = APPROVAL_STATUS ( 'not_yet_approved' ) ;
#374 = PERSON_AND_ORGANIZATION ( #94, #2 ) ;
#375 = PRODUCT_DEFINITION ( 'UNKNOWN', '', #43, #376 ) ;
#376 = DESIGN_CONTEXT ( 'detailed design', #378, 'design' ) ;
#377 = APPLICATION_PROTOCOL_DEFINITION ( 'international standard', 'config_control_design', 1994, #378 ) ;
#378 = APPLICATION_CONTEXT ( 'configuration controlled 3d designs of mechanical parts and assemblies' ) ;
#379 = CC_DESIGN_PERSON_AND_ORGANIZATION_ASSIGNMENT ( #1, #380, ( #95 ) ) ;
#380 = PERSON_AND_ORGANIZATION_ROLE ( 'design_owner' ) ;
ENDSEC;
END-ISO-10303-21;
