ISO-10303-21;
HEADER;
FILE_DESCRIPTION (( 'STEP AP214' ),
    '1' );
FILE_NAME ('RG316-DS-PROD_3D.step',
    '2023-05-09T22:18:42',
    ( '' ),
    ( '' ),
    'SwSTEP 2.0',
    'SolidWorks 2022',
    '' );
FILE_SCHEMA (( 'AUTOMOTIVE_DESIGN' ));
ENDSEC;

DATA;
#1 = AXIS2_PLACEMENT_3D ( 'NONE', #119, #15, #58 ) ;
#2 =( CONVERSION_BASED_UNIT ( 'INCH', #34 ) LENGTH_UNIT ( ) NAMED_UNIT ( #84 ) );
#3 = CARTESIAN_POINT ( 'NONE',  ( -4.000000000000000000, 6.991093932140169211E-18, -0.05708661417322644094 ) ) ;
#4 = DIRECTION ( 'NONE',  ( -1.000000000000000000, -0.000000000000000000, -0.000000000000000000 ) ) ;
#5 = FACE_OUTER_BOUND ( 'NONE', #17, .T. ) ;
#6 = AXIS2_PLACEMENT_3D ( 'NONE', #73, #82, #127 ) ;
#7 = APPLICATION_CONTEXT ( 'automotive_design' ) ;
#8 = ADVANCED_FACE ( 'NONE', ( #5 ), #51, .F. ) ;
#9 = AXIS2_PLACEMENT_3D ( 'NONE', #75, #137, #148 ) ;
#10 = CARTESIAN_POINT ( 'NONE',  ( 0.000000000000000000, 0.000000000000000000, 0.000000000000000000 ) ) ;
#11 = MECHANICAL_DESIGN_GEOMETRIC_PRESENTATION_REPRESENTATION (  '', ( #92 ), #45 ) ;
#12 = LENGTH_MEASURE_WITH_UNIT ( LENGTH_MEASURE( 0.02539999999999999897 ), #66 );
#13 = LINE ( 'NONE', #27, #125 ) ;
#14 = EDGE_CURVE ( 'NONE', #42, #89, #63, .T. ) ;
#15 = DIRECTION ( 'NONE',  ( 1.000000000000000000, 0.000000000000000000, 0.000000000000000000 ) ) ;
#16 = MANIFOLD_SOLID_BREP ( 'Boss-Extrude1', #121 ) ;
#17 = EDGE_LOOP ( 'NONE', ( #91, #112 ) ) ;
#18 = ORIENTED_EDGE ( 'NONE', *, *, #59, .T. ) ;
#19 = PRESENTATION_LAYER_ASSIGNMENT (  '', '', ( #78 ) ) ;
#20 = CIRCLE ( 'NONE', #64, 0.05708661417322644094 ) ;
#21 =( GEOMETRIC_REPRESENTATION_CONTEXT ( 3 ) GLOBAL_UNCERTAINTY_ASSIGNED_CONTEXT ( ( #96 ) ) GLOBAL_UNIT_ASSIGNED_CONTEXT ( ( #105, #38, #81 ) ) REPRESENTATION_CONTEXT ( 'NONE', 'WORKASPACE' ) );
#22 = PRODUCT ( 'RG316-DS-PROD_3D', 'RG316-DS-PROD_3D', '', ( #54 ) ) ;
#23 = SURFACE_STYLE_USAGE ( .BOTH. , #107 ) ;
#24 = CYLINDRICAL_SURFACE ( 'NONE', #126, 0.05708661417322644094 ) ;
#25 = PRESENTATION_LAYER_ASSIGNMENT (  '', '', ( #92 ) ) ;
#26 = PRESENTATION_STYLE_ASSIGNMENT (( #118 ) ) ;
#27 = CARTESIAN_POINT ( 'NONE',  ( 4.000000000000000000, 0.000000000000000000, 0.05708661417322644094 ) ) ;
#28 = ORIENTED_EDGE ( 'NONE', *, *, #65, .T. ) ;
#29 = EDGE_LOOP ( 'NONE', ( #41, #28 ) ) ;
#30 = AXIS2_PLACEMENT_3D ( 'NONE', #10, #69, #36 ) ;
#31 = ADVANCED_FACE ( 'NONE', ( #46 ), #97, .T. ) ;
#32 = PRODUCT_DEFINITION_SHAPE ( 'NONE', 'NONE',  #124 ) ;
#33 = ADVANCED_BREP_SHAPE_REPRESENTATION ( 'RG316-DS-PROD_3D', ( #16, #30 ), #21 ) ;
#34 = LENGTH_MEASURE_WITH_UNIT ( LENGTH_MEASURE( 0.02539999999999999897 ), #115 );
#35 = CARTESIAN_POINT ( 'NONE',  ( 4.000000000000000000, 0.000000000000000000, 0.05708661417322644094 ) ) ;
#36 = DIRECTION ( 'NONE',  ( 1.000000000000000000, 0.000000000000000000, 0.000000000000000000 ) ) ;
#37 = CARTESIAN_POINT ( 'NONE',  ( 4.000000000000000000, 0.000000000000000000, 0.000000000000000000 ) ) ;
#38 =( NAMED_UNIT ( * ) PLANE_ANGLE_UNIT ( ) SI_UNIT ( $, .RADIAN. ) );
#39 = DIRECTION ( 'NONE',  ( 0.000000000000000000, 0.000000000000000000, -1.000000000000000000 ) ) ;
#40 =( CONVERSION_BASED_UNIT ( 'INCH', #12 ) LENGTH_UNIT ( ) NAMED_UNIT ( #68 ) );
#41 = ORIENTED_EDGE ( 'NONE', *, *, #14, .T. ) ;
#42 = VERTEX_POINT ( 'NONE', #35 ) ;
#43 = UNCERTAINTY_MEASURE_WITH_UNIT (LENGTH_MEASURE( 1.000000000000000082E-05 ), #40, 'distance_accuracy_value', 'NONE');
#44 = EDGE_CURVE ( 'NONE', #61, #122, #20, .T. ) ;
#45 =( GEOMETRIC_REPRESENTATION_CONTEXT ( 3 ) GLOBAL_UNCERTAINTY_ASSIGNED_CONTEXT ( ( #43 ) ) GLOBAL_UNIT_ASSIGNED_CONTEXT ( ( #40, #83, #142 ) ) REPRESENTATION_CONTEXT ( 'NONE', 'WORKASPACE' ) );
#46 = FACE_OUTER_BOUND ( 'NONE', #29, .T. ) ;
#47 = APPLICATION_PROTOCOL_DEFINITION ( 'draft international standard', 'automotive_design', 1998, #80 ) ;
#48 = DIRECTION ( 'NONE',  ( 0.000000000000000000, 0.000000000000000000, -1.000000000000000000 ) ) ;
#49 = DIRECTION ( 'NONE',  ( 0.000000000000000000, 0.000000000000000000, 1.000000000000000000 ) ) ;
#50 = ORIENTED_EDGE ( 'NONE', *, *, #95, .T. ) ;
#51 = PLANE ( 'NONE',  #9 ) ;
#52 = ORIENTED_EDGE ( 'NONE', *, *, #65, .F. ) ;
#53 = VECTOR ( 'NONE', #144, 39.37007874015748143 ) ;
#54 = PRODUCT_CONTEXT ( 'NONE', #80, 'mechanical' ) ;
#55 = DIRECTION ( 'NONE',  ( 1.000000000000000000, 0.000000000000000000, 0.000000000000000000 ) ) ;
#56 = CARTESIAN_POINT ( 'NONE',  ( 4.000000000000000000, 6.991093932140169211E-18, -0.05708661417322644094 ) ) ;
#57 =( LENGTH_UNIT ( ) NAMED_UNIT ( * ) SI_UNIT ( $, .METRE. ) );
#58 = DIRECTION ( 'NONE',  ( 0.000000000000000000, 0.000000000000000000, -1.000000000000000000 ) ) ;
#59 = EDGE_CURVE ( 'NONE', #42, #61, #13, .T. ) ;
#60 = CIRCLE ( 'NONE', #1, 0.05708661417322644094 ) ;
#61 = VERTEX_POINT ( 'NONE', #99 ) ;
#62 = EDGE_CURVE ( 'NONE', #89, #122, #72, .T. ) ;
#63 = CIRCLE ( 'NONE', #67, 0.05708661417322644094 ) ;
#64 = AXIS2_PLACEMENT_3D ( 'NONE', #108, #86, #131 ) ;
#65 = EDGE_CURVE ( 'NONE', #89, #42, #147, .T. ) ;
#66 =( LENGTH_UNIT ( ) NAMED_UNIT ( * ) SI_UNIT ( $, .METRE. ) );
#67 = AXIS2_PLACEMENT_3D ( 'NONE', #102, #113, #111 ) ;
#68 = DIMENSIONAL_EXPONENTS ( 1.000000000000000000, 0.000000000000000000, 0.000000000000000000, 0.000000000000000000, 0.000000000000000000, 0.000000000000000000, 0.000000000000000000 ) ;
#69 = DIRECTION ( 'NONE',  ( 0.000000000000000000, 0.000000000000000000, 1.000000000000000000 ) ) ;
#70 = DIRECTION ( 'NONE',  ( -1.000000000000000000, -0.000000000000000000, -0.000000000000000000 ) ) ;
#71 = SURFACE_STYLE_FILL_AREA ( #94 ) ;
#72 = LINE ( 'NONE', #56, #53 ) ;
#73 = CARTESIAN_POINT ( 'NONE',  ( 4.000000000000000000, 0.000000000000000000, 0.000000000000000000 ) ) ;
#74 = ORIENTED_EDGE ( 'NONE', *, *, #44, .T. ) ;
#75 = CARTESIAN_POINT ( 'NONE',  ( -4.000000000000000000, 0.000000000000000000, 0.000000000000000000 ) ) ;
#76 = ORIENTED_EDGE ( 'NONE', *, *, #14, .F. ) ;
#77 = PRODUCT_DEFINITION_FORMATION_WITH_SPECIFIED_SOURCE ( 'ANY', '', #22, .NOT_KNOWN. ) ;
#78 = STYLED_ITEM ( 'NONE', ( #140 ), #33 ) ;
#79 = MECHANICAL_DESIGN_GEOMETRIC_PRESENTATION_REPRESENTATION (  '', ( #78 ), #123 ) ;
#80 = APPLICATION_CONTEXT ( 'automotive_design' ) ;
#81 =( NAMED_UNIT ( * ) SI_UNIT ( $, .STERADIAN. ) SOLID_ANGLE_UNIT ( ) );
#82 = DIRECTION ( 'NONE',  ( -1.000000000000000000, -0.000000000000000000, -0.000000000000000000 ) ) ;
#83 =( NAMED_UNIT ( * ) PLANE_ANGLE_UNIT ( ) SI_UNIT ( $, .RADIAN. ) );
#84 = DIMENSIONAL_EXPONENTS ( 1.000000000000000000, 0.000000000000000000, 0.000000000000000000, 0.000000000000000000, 0.000000000000000000, 0.000000000000000000, 0.000000000000000000 ) ;
#85 = APPLICATION_PROTOCOL_DEFINITION ( 'draft international standard', 'automotive_design', 1998, #7 ) ;
#86 = DIRECTION ( 'NONE',  ( 1.000000000000000000, 0.000000000000000000, 0.000000000000000000 ) ) ;
#87 = CARTESIAN_POINT ( 'NONE',  ( 4.000000000000000000, 6.991093932140169211E-18, -0.05708661417322644094 ) ) ;
#88 = CARTESIAN_POINT ( 'NONE',  ( 4.000000000000000000, 0.000000000000000000, 0.000000000000000000 ) ) ;
#89 = VERTEX_POINT ( 'NONE', #87 ) ;
#90 = PRODUCT_RELATED_PRODUCT_CATEGORY ( 'part', '', ( #22 ) ) ;
#91 = ORIENTED_EDGE ( 'NONE', *, *, #44, .F. ) ;
#92 = STYLED_ITEM ( 'NONE', ( #26 ), #16 ) ;
#93 = PRODUCT_DEFINITION_CONTEXT ( 'detailed design', #7, 'design' ) ;
#94 = FILL_AREA_STYLE ('',( #117 ) ) ;
#95 = EDGE_CURVE ( 'NONE', #122, #61, #60, .T. ) ;
#96 = UNCERTAINTY_MEASURE_WITH_UNIT (LENGTH_MEASURE( 1.000000000000000082E-05 ), #105, 'distance_accuracy_value', 'NONE');
#97 = PLANE ( 'NONE',  #135 ) ;
#98 =( NAMED_UNIT ( * ) PLANE_ANGLE_UNIT ( ) SI_UNIT ( $, .RADIAN. ) );
#99 = CARTESIAN_POINT ( 'NONE',  ( -4.000000000000000000, 0.000000000000000000, 0.05708661417322644094 ) ) ;
#100 = CYLINDRICAL_SURFACE ( 'NONE', #6, 0.05708661417322644094 ) ;
#101 = ORIENTED_EDGE ( 'NONE', *, *, #62, .F. ) ;
#102 = CARTESIAN_POINT ( 'NONE',  ( 4.000000000000000000, 0.000000000000000000, 0.000000000000000000 ) ) ;
#103 = LENGTH_MEASURE_WITH_UNIT ( LENGTH_MEASURE( 0.02539999999999999897 ), #57 );
#104 = COLOUR_RGB ( '',0.8039215686274510109, 0.6627450980392156632, 0.6078431372549019107 ) ;
#105 =( CONVERSION_BASED_UNIT ( 'INCH', #103 ) LENGTH_UNIT ( ) NAMED_UNIT ( #114 ) );
#106 = SURFACE_STYLE_FILL_AREA ( #145 ) ;
#107 = SURFACE_SIDE_STYLE ('',( #71 ) ) ;
#108 = CARTESIAN_POINT ( 'NONE',  ( -4.000000000000000000, 0.000000000000000000, 0.000000000000000000 ) ) ;
#109 = CARTESIAN_POINT ( 'NONE',  ( 4.000000000000000000, 0.000000000000000000, 0.000000000000000000 ) ) ;
#110 = EDGE_LOOP ( 'NONE', ( #101, #76, #18, #74 ) ) ;
#111 = DIRECTION ( 'NONE',  ( 0.000000000000000000, 0.000000000000000000, -1.000000000000000000 ) ) ;
#112 = ORIENTED_EDGE ( 'NONE', *, *, #95, .F. ) ;
#113 = DIRECTION ( 'NONE',  ( 1.000000000000000000, 0.000000000000000000, 0.000000000000000000 ) ) ;
#114 = DIMENSIONAL_EXPONENTS ( 1.000000000000000000, 0.000000000000000000, 0.000000000000000000, 0.000000000000000000, 0.000000000000000000, 0.000000000000000000, 0.000000000000000000 ) ;
#115 =( LENGTH_UNIT ( ) NAMED_UNIT ( * ) SI_UNIT ( $, .METRE. ) );
#116 = SURFACE_SIDE_STYLE ('',( #106 ) ) ;
#117 = FILL_AREA_STYLE_COLOUR ( '', #128 ) ;
#118 = SURFACE_STYLE_USAGE ( .BOTH. , #116 ) ;
#119 = CARTESIAN_POINT ( 'NONE',  ( -4.000000000000000000, 0.000000000000000000, 0.000000000000000000 ) ) ;
#120 = ORIENTED_EDGE ( 'NONE', *, *, #62, .T. ) ;
#121 = CLOSED_SHELL ( 'NONE', ( #146, #139, #31, #8 ) ) ;
#122 = VERTEX_POINT ( 'NONE', #3 ) ;
#123 =( GEOMETRIC_REPRESENTATION_CONTEXT ( 3 ) GLOBAL_UNCERTAINTY_ASSIGNED_CONTEXT ( ( #133 ) ) GLOBAL_UNIT_ASSIGNED_CONTEXT ( ( #2, #98, #143 ) ) REPRESENTATION_CONTEXT ( 'NONE', 'WORKASPACE' ) );
#124 = PRODUCT_DEFINITION ( 'UNKNOWN', '', #77, #93 ) ;
#125 = VECTOR ( 'NONE', #70, 39.37007874015748143 ) ;
#126 = AXIS2_PLACEMENT_3D ( 'NONE', #109, #4, #49 ) ;
#127 = DIRECTION ( 'NONE',  ( 0.000000000000000000, 0.000000000000000000, 1.000000000000000000 ) ) ;
#128 = COLOUR_RGB ( '',0.8039215686274510109, 0.6627450980392156632, 0.6078431372549019107 ) ;
#129 = FILL_AREA_STYLE_COLOUR ( '', #104 ) ;
#130 = SHAPE_DEFINITION_REPRESENTATION ( #32, #33 ) ;
#131 = DIRECTION ( 'NONE',  ( 0.000000000000000000, 0.000000000000000000, -1.000000000000000000 ) ) ;
#132 = DIRECTION ( 'NONE',  ( 1.000000000000000000, 0.000000000000000000, 0.000000000000000000 ) ) ;
#133 = UNCERTAINTY_MEASURE_WITH_UNIT (LENGTH_MEASURE( 1.000000000000000082E-05 ), #2, 'distance_accuracy_value', 'NONE');
#134 = FACE_OUTER_BOUND ( 'NONE', #136, .T. ) ;
#135 = AXIS2_PLACEMENT_3D ( 'NONE', #37, #55, #48 ) ;
#136 = EDGE_LOOP ( 'NONE', ( #52, #120, #50, #149 ) ) ;
#137 = DIRECTION ( 'NONE',  ( 1.000000000000000000, 0.000000000000000000, 0.000000000000000000 ) ) ;
#138 = AXIS2_PLACEMENT_3D ( 'NONE', #88, #132, #39 ) ;
#139 = ADVANCED_FACE ( 'NONE', ( #141 ), #24, .T. ) ;
#140 = PRESENTATION_STYLE_ASSIGNMENT (( #23 ) ) ;
#141 = FACE_OUTER_BOUND ( 'NONE', #110, .T. ) ;
#142 =( NAMED_UNIT ( * ) SI_UNIT ( $, .STERADIAN. ) SOLID_ANGLE_UNIT ( ) );
#143 =( NAMED_UNIT ( * ) SI_UNIT ( $, .STERADIAN. ) SOLID_ANGLE_UNIT ( ) );
#144 = DIRECTION ( 'NONE',  ( -1.000000000000000000, -0.000000000000000000, -0.000000000000000000 ) ) ;
#145 = FILL_AREA_STYLE ('',( #129 ) ) ;
#146 = ADVANCED_FACE ( 'NONE', ( #134 ), #100, .T. ) ;
#147 = CIRCLE ( 'NONE', #138, 0.05708661417322644094 ) ;
#148 = DIRECTION ( 'NONE',  ( 0.000000000000000000, 0.000000000000000000, -1.000000000000000000 ) ) ;
#149 = ORIENTED_EDGE ( 'NONE', *, *, #59, .F. ) ;
ENDSEC;
END-ISO-10303-21;
