ISO-10303-21;
HEADER;
FILE_DESCRIPTION (( 'STEP AP214' ),
    '1' );
FILE_NAME ('LCCN45952_3D.step',
    '2023-05-09T22:32:17',
    ( '' ),
    ( '' ),
    'SwSTEP 2.0',
    'SolidWorks 2022',
    '' );
FILE_SCHEMA (( 'AUTOMOTIVE_DESIGN' ));
ENDSEC;

DATA;
#1 = CARTESIAN_POINT ( 'NONE',  ( -0.7499999999999998890, 9.642888182262623048E-18, 0.07874015748031495954 ) ) ;
#2 = DIRECTION ( 'NONE',  ( 1.000000000000000000, -0.000000000000000000, -0.000000000000000000 ) ) ;
#3 = AXIS2_PLACEMENT_3D ( 'NONE', #309, #339, #66 ) ;
#4 = ORIENTED_EDGE ( 'NONE', *, *, #181, .F. ) ;
#5 = AXIS2_PLACEMENT_3D ( 'NONE', #11, #2, #33 ) ;
#6 = ADVANCED_FACE ( 'NONE', ( #103 ), #318, .T. ) ;
#7 = CARTESIAN_POINT ( 'NONE',  ( -1.000000000000000000, 0.000000000000000000, 0.000000000000000000 ) ) ;
#8 = ORIENTED_EDGE ( 'NONE', *, *, #351, .F. ) ;
#9 = DIRECTION ( 'NONE',  ( 0.000000000000000000, 0.000000000000000000, -1.000000000000000000 ) ) ;
#10 = ORIENTED_EDGE ( 'NONE', *, *, #65, .F. ) ;
#11 = CARTESIAN_POINT ( 'NONE',  ( 0.000000000000000000, 0.000000000000000000, 0.000000000000000000 ) ) ;
#12 = ORIENTED_EDGE ( 'NONE', *, *, #211, .F. ) ;
#13 = MECHANICAL_DESIGN_GEOMETRIC_PRESENTATION_REPRESENTATION (  '', ( #38 ), #171 ) ;
#14 = CARTESIAN_POINT ( 'NONE',  ( -0.7499999999999998890, 0.000000000000000000, 0.000000000000000000 ) ) ;
#15 = DIRECTION ( 'NONE',  ( 0.000000000000000000, 0.000000000000000000, -1.000000000000000000 ) ) ;
#16 = DIMENSIONAL_EXPONENTS ( 1.000000000000000000, 0.000000000000000000, 0.000000000000000000, 0.000000000000000000, 0.000000000000000000, 0.000000000000000000, 0.000000000000000000 ) ;
#17 = ORIENTED_EDGE ( 'NONE', *, *, #267, .F. ) ;
#18 = CARTESIAN_POINT ( 'NONE',  ( 0.000000000000000000, 9.642888182262623048E-18, 0.07874015748031495954 ) ) ;
#19 = DIRECTION ( 'NONE',  ( 0.000000000000000000, 0.000000000000000000, -1.000000000000000000 ) ) ;
#20 = DIRECTION ( 'NONE',  ( 1.000000000000000000, -0.000000000000000000, -0.000000000000000000 ) ) ;
#21 = ORIENTED_EDGE ( 'NONE', *, *, #356, .T. ) ;
#22 = ADVANCED_BREP_SHAPE_REPRESENTATION ( 'LCCN45952_3D', ( #170, #67 ), #187 ) ;
#23 = VECTOR ( 'NONE', #102, 39.37007874015748143 ) ;
#24 = DIRECTION ( 'NONE',  ( 0.000000000000000000, 0.000000000000000000, 1.000000000000000000 ) ) ;
#25 = CARTESIAN_POINT ( 'NONE',  ( -0.8499999999999999778, 0.000000000000000000, 0.000000000000000000 ) ) ;
#26 = EDGE_CURVE ( 'NONE', #265, #184, #350, .T. ) ;
#27 = AXIS2_PLACEMENT_3D ( 'NONE', #194, #321, #47 ) ;
#28 = CARTESIAN_POINT ( 'NONE',  ( 0.000000000000000000, 0.000000000000000000, 0.000000000000000000 ) ) ;
#29 = CYLINDRICAL_SURFACE ( 'NONE', #54, 0.01574803149606299191 ) ;
#30 = AXIS2_PLACEMENT_3D ( 'NONE', #322, #74, #19 ) ;
#31 = DIRECTION ( 'NONE',  ( 1.000000000000000000, -0.000000000000000000, -0.000000000000000000 ) ) ;
#32 = CIRCLE ( 'NONE', #50, 0.01574803149606298150 ) ;
#33 = DIRECTION ( 'NONE',  ( 0.000000000000000000, 0.000000000000000000, -1.000000000000000000 ) ) ;
#34 = ORIENTED_EDGE ( 'NONE', *, *, #90, .T. ) ;
#35 = CARTESIAN_POINT ( 'NONE',  ( -0.8499999999999999778, 0.000000000000000000, 0.000000000000000000 ) ) ;
#36 = CARTESIAN_POINT ( 'NONE',  ( 0.000000000000000000, 1.928577636452524532E-18, 0.01574803149606299191 ) ) ;
#37 = ORIENTED_EDGE ( 'NONE', *, *, #315, .F. ) ;
#38 = STYLED_ITEM ( 'NONE', ( #176 ), #170 ) ;
#39 = AXIS2_PLACEMENT_3D ( 'NONE', #288, #77, #376 ) ;
#40 = PLANE ( 'NONE',  #39 ) ;
#41 = EDGE_LOOP ( 'NONE', ( #224, #213, #99, #107 ) ) ;
#42 = FACE_BOUND ( 'NONE', #374, .T. ) ;
#43 = ADVANCED_FACE ( 'NONE', ( #42, #295 ), #132, .T. ) ;
#44 = SURFACE_STYLE_FILL_AREA ( #316 ) ;
#45 = CARTESIAN_POINT ( 'NONE',  ( -0.8499999999999999778, 0.01574803149606299885, 0.000000000000000000 ) ) ;
#46 =( LENGTH_UNIT ( ) NAMED_UNIT ( * ) SI_UNIT ( $, .METRE. ) );
#47 = DIRECTION ( 'NONE',  ( 0.000000000000000000, 0.000000000000000000, -1.000000000000000000 ) ) ;
#48 = ORIENTED_EDGE ( 'NONE', *, *, #188, .T. ) ;
#49 = VERTEX_POINT ( 'NONE', #348 ) ;
#50 = AXIS2_PLACEMENT_3D ( 'NONE', #353, #349, #294 ) ;
#51 = DIRECTION ( 'NONE',  ( 1.000000000000000000, -0.000000000000000000, -0.000000000000000000 ) ) ;
#52 = DIRECTION ( 'NONE',  ( 1.000000000000000000, -0.000000000000000000, -0.000000000000000000 ) ) ;
#53 = DIRECTION ( 'NONE',  ( 0.000000000000000000, 0.000000000000000000, -1.000000000000000000 ) ) ;
#54 = AXIS2_PLACEMENT_3D ( 'NONE', #28, #51, #55 ) ;
#55 = DIRECTION ( 'NONE',  ( 0.000000000000000000, 0.000000000000000000, -1.000000000000000000 ) ) ;
#56 = EDGE_CURVE ( 'NONE', #138, #151, #292, .T. ) ;
#57 = CYLINDRICAL_SURFACE ( 'NONE', #5, 0.06299212598425187049 ) ;
#58 = CARTESIAN_POINT ( 'NONE',  ( -0.7499999999999998890, 0.000000000000000000, 0.000000000000000000 ) ) ;
#59 = ORIENTED_EDGE ( 'NONE', *, *, #287, .F. ) ;
#60 = DIRECTION ( 'NONE',  ( 1.000000000000000000, -0.000000000000000000, -0.000000000000000000 ) ) ;
#61 = CIRCLE ( 'NONE', #96, 0.01574803149606299885 ) ;
#62 = EDGE_LOOP ( 'NONE', ( #370, #198, #227, #113 ) ) ;
#63 = LINE ( 'NONE', #183, #201 ) ;
#64 = EDGE_LOOP ( 'NONE', ( #231, #161 ) ) ;
#65 = EDGE_CURVE ( 'NONE', #180, #101, #82, .T. ) ;
#66 = DIRECTION ( 'NONE',  ( 0.000000000000000000, 0.000000000000000000, 1.000000000000000000 ) ) ;
#67 = AXIS2_PLACEMENT_3D ( 'NONE', #324, #85, #360 ) ;
#68 = ORIENTED_EDGE ( 'NONE', *, *, #56, .F. ) ;
#69 = CIRCLE ( 'NONE', #88, 0.06299212598425185661 ) ;
#70 = DIRECTION ( 'NONE',  ( 0.000000000000000000, 0.000000000000000000, -1.000000000000000000 ) ) ;
#71 = EDGE_CURVE ( 'NONE', #265, #381, #310, .T. ) ;
#72 = ORIENTED_EDGE ( 'NONE', *, *, #211, .T. ) ;
#73 = VERTEX_POINT ( 'NONE', #234 ) ;
#74 = DIRECTION ( 'NONE',  ( 1.000000000000000000, -0.000000000000000000, -0.000000000000000000 ) ) ;
#75 = DIRECTION ( 'NONE',  ( 1.000000000000000000, -0.000000000000000000, -0.000000000000000000 ) ) ;
#76 = AXIS2_PLACEMENT_3D ( 'NONE', #307, #89, #146 ) ;
#77 = DIRECTION ( 'NONE',  ( 1.000000000000000000, 0.000000000000000000, -0.000000000000000000 ) ) ;
#78 = DIRECTION ( 'NONE',  ( 1.000000000000000000, -0.000000000000000000, -0.000000000000000000 ) ) ;
#79 = EDGE_CURVE ( 'NONE', #151, #220, #319, .T. ) ;
#80 = EDGE_LOOP ( 'NONE', ( #235, #21 ) ) ;
#81 = DIRECTION ( 'NONE',  ( 1.000000000000000000, -0.000000000000000000, -0.000000000000000000 ) ) ;
#82 = CIRCLE ( 'NONE', #352, 0.1181102362204724116 ) ;
#83 = PLANE ( 'NONE',  #298 ) ;
#84 = CYLINDRICAL_SURFACE ( 'NONE', #127, 0.1181102362204724116 ) ;
#85 = DIRECTION ( 'NONE',  ( 0.000000000000000000, 0.000000000000000000, 1.000000000000000000 ) ) ;
#86 = CARTESIAN_POINT ( 'NONE',  ( -0.3499999999999999778, 0.000000000000000000, 0.000000000000000000 ) ) ;
#87 = AXIS2_PLACEMENT_3D ( 'NONE', #86, #52, #53 ) ;
#88 = AXIS2_PLACEMENT_3D ( 'NONE', #35, #121, #281 ) ;
#89 = DIRECTION ( 'NONE',  ( 1.000000000000000000, -0.000000000000000000, -0.000000000000000000 ) ) ;
#90 = EDGE_CURVE ( 'NONE', #101, #180, #383, .T. ) ;
#91 =( NAMED_UNIT ( * ) SI_UNIT ( $, .STERADIAN. ) SOLID_ANGLE_UNIT ( ) );
#92 = EDGE_LOOP ( 'NONE', ( #123, #278, #72, #323 ) ) ;
#93 = DIRECTION ( 'NONE',  ( 1.000000000000000000, -0.000000000000000000, -0.000000000000000000 ) ) ;
#94 = ORIENTED_EDGE ( 'NONE', *, *, #385, .F. ) ;
#95 = DIRECTION ( 'NONE',  ( 1.000000000000000000, -0.000000000000000000, -0.000000000000000000 ) ) ;
#96 = AXIS2_PLACEMENT_3D ( 'NONE', #25, #81, #362 ) ;
#97 = ADVANCED_FACE ( 'NONE', ( #236 ), #29, .T. ) ;
#98 = CARTESIAN_POINT ( 'NONE',  ( -0.7499999999999998890, 0.000000000000000000, -0.07874015748031495954 ) ) ;
#99 = ORIENTED_EDGE ( 'NONE', *, *, #302, .F. ) ;
#100 = DIRECTION ( 'NONE',  ( -1.000000000000000000, 0.000000000000000000, 0.000000000000000000 ) ) ;
#101 = VERTEX_POINT ( 'NONE', #269 ) ;
#102 = DIRECTION ( 'NONE',  ( 1.000000000000000000, -0.000000000000000000, -0.000000000000000000 ) ) ;
#103 = FACE_OUTER_BOUND ( 'NONE', #41, .T. ) ;
#104 = AXIS2_PLACEMENT_3D ( 'NONE', #277, #371, #247 ) ;
#105 = VERTEX_POINT ( 'NONE', #174 ) ;
#106 = APPLICATION_PROTOCOL_DEFINITION ( 'draft international standard', 'automotive_design', 1998, #203 ) ;
#107 = ORIENTED_EDGE ( 'NONE', *, *, #327, .F. ) ;
#108 = FACE_OUTER_BOUND ( 'NONE', #64, .T. ) ;
#109 = EDGE_LOOP ( 'NONE', ( #94, #251, #297, #377 ) ) ;
#110 = ADVANCED_FACE ( 'NONE', ( #144 ), #84, .T. ) ;
#111 = VECTOR ( 'NONE', #20, 39.37007874015748143 ) ;
#112 =( NAMED_UNIT ( * ) PLANE_ANGLE_UNIT ( ) SI_UNIT ( $, .RADIAN. ) );
#113 = ORIENTED_EDGE ( 'NONE', *, *, #26, .F. ) ;
#114 = ADVANCED_FACE ( 'NONE', ( #271 ), #117, .T. ) ;
#115 = FACE_OUTER_BOUND ( 'NONE', #340, .T. ) ;
#116 = AXIS2_PLACEMENT_3D ( 'NONE', #58, #31, #249 ) ;
#117 = CYLINDRICAL_SURFACE ( 'NONE', #139, 0.01574803149606299191 ) ;
#118 = FACE_BOUND ( 'NONE', #289, .T. ) ;
#119 = EDGE_CURVE ( 'NONE', #73, #105, #359, .T. ) ;
#120 = CIRCLE ( 'NONE', #104, 0.1181102362204724116 ) ;
#121 = DIRECTION ( 'NONE',  ( 1.000000000000000000, -0.000000000000000000, -0.000000000000000000 ) ) ;
#122 = DIRECTION ( 'NONE',  ( 0.000000000000000000, 0.000000000000000000, 1.000000000000000000 ) ) ;
#123 = ORIENTED_EDGE ( 'NONE', *, *, #375, .F. ) ;
#124 = CARTESIAN_POINT ( 'NONE',  ( -0.3499999999999999778, 0.000000000000000000, 0.000000000000000000 ) ) ;
#125 = ORIENTED_EDGE ( 'NONE', *, *, #90, .F. ) ;
#126 = DIRECTION ( 'NONE',  ( 1.000000000000000000, -0.000000000000000000, -0.000000000000000000 ) ) ;
#127 = AXIS2_PLACEMENT_3D ( 'NONE', #329, #303, #270 ) ;
#128 = CARTESIAN_POINT ( 'NONE',  ( 0.000000000000000000, 0.000000000000000000, 0.000000000000000000 ) ) ;
#129 = ADVANCED_FACE ( 'NONE', ( #115 ), #239, .T. ) ;
#130 = ORIENTED_EDGE ( 'NONE', *, *, #79, .F. ) ;
#131 = CARTESIAN_POINT ( 'NONE',  ( -1.000000000000000000, 1.928577636452524147E-18, 0.01574803149606298150 ) ) ;
#132 = PLANE ( 'NONE',  #217 ) ;
#133 = DIRECTION ( 'NONE',  ( 1.000000000000000000, -0.000000000000000000, -0.000000000000000000 ) ) ;
#134 = PRESENTATION_STYLE_ASSIGNMENT (( #164 ) ) ;
#135 = EDGE_CURVE ( 'NONE', #184, #346, #61, .T. ) ;
#136 = ORIENTED_EDGE ( 'NONE', *, *, #26, .T. ) ;
#137 = CARTESIAN_POINT ( 'NONE',  ( -0.8499999999999999778, 7.714310545810087345E-18, 0.06299212598425185661 ) ) ;
#138 = VERTEX_POINT ( 'NONE', #1 ) ;
#139 = AXIS2_PLACEMENT_3D ( 'NONE', #207, #388, #332 ) ;
#140 = CIRCLE ( 'NONE', #149, 0.07874015748031495954 ) ;
#141 = DIRECTION ( 'NONE',  ( 0.000000000000000000, 0.000000000000000000, -1.000000000000000000 ) ) ;
#142 = EDGE_CURVE ( 'NONE', #49, #365, #148, .T. ) ;
#143 =( NAMED_UNIT ( * ) PLANE_ANGLE_UNIT ( ) SI_UNIT ( $, .RADIAN. ) );
#144 = FACE_OUTER_BOUND ( 'NONE', #368, .T. ) ;
#145 = SURFACE_SIDE_STYLE ('',( #361 ) ) ;
#146 = DIRECTION ( 'NONE',  ( 0.000000000000000000, 0.000000000000000000, -1.000000000000000000 ) ) ;
#147 = FACE_OUTER_BOUND ( 'NONE', #263, .T. ) ;
#148 = CIRCLE ( 'NONE', #76, 0.06299212598425185661 ) ;
#149 = AXIS2_PLACEMENT_3D ( 'NONE', #124, #95, #218 ) ;
#150 = CARTESIAN_POINT ( 'NONE',  ( 0.000000000000000000, 0.000000000000000000, -0.1181102362204724116 ) ) ;
#151 = VERTEX_POINT ( 'NONE', #272 ) ;
#152 = CARTESIAN_POINT ( 'NONE',  ( -0.7499999999999998890, 0.000000000000000000, 0.000000000000000000 ) ) ;
#153 = DIRECTION ( 'NONE',  ( 0.000000000000000000, 0.000000000000000000, -1.000000000000000000 ) ) ;
#154 = FACE_OUTER_BOUND ( 'NONE', #92, .T. ) ;
#155 = ORIENTED_EDGE ( 'NONE', *, *, #181, .T. ) ;
#156 = ORIENTED_EDGE ( 'NONE', *, *, #79, .T. ) ;
#157 = PRODUCT_DEFINITION_CONTEXT ( 'detailed design', #293, 'design' ) ;
#158 = ORIENTED_EDGE ( 'NONE', *, *, #327, .T. ) ;
#159 = MECHANICAL_DESIGN_GEOMETRIC_PRESENTATION_REPRESENTATION (  '', ( #206 ), #215 ) ;
#160 = LENGTH_MEASURE_WITH_UNIT ( LENGTH_MEASURE( 0.02539999999999999897 ), #262 );
#161 = ORIENTED_EDGE ( 'NONE', *, *, #240, .T. ) ;
#162 = AXIS2_PLACEMENT_3D ( 'NONE', #354, #78, #387 ) ;
#163 = ADVANCED_FACE ( 'NONE', ( #118, #237 ), #83, .T. ) ;
#164 = SURFACE_STYLE_USAGE ( .BOTH. , #264 ) ;
#165 = CARTESIAN_POINT ( 'NONE',  ( -0.3499999999999999778, 0.000000000000000000, 0.000000000000000000 ) ) ;
#166 = VERTEX_POINT ( 'NONE', #202 ) ;
#167 = PRESENTATION_LAYER_ASSIGNMENT (  '', '', ( #206 ) ) ;
#168 = DIRECTION ( 'NONE',  ( -1.000000000000000000, 0.000000000000000000, 0.000000000000000000 ) ) ;
#169 = PRODUCT_DEFINITION ( 'UNKNOWN', '', #330, #157 ) ;
#170 = MANIFOLD_SOLID_BREP ( 'Revolve1', #195 ) ;
#171 =( GEOMETRIC_REPRESENTATION_CONTEXT ( 3 ) GLOBAL_UNCERTAINTY_ASSIGNED_CONTEXT ( ( #358 ) ) GLOBAL_UNIT_ASSIGNED_CONTEXT ( ( #326, #143, #91 ) ) REPRESENTATION_CONTEXT ( 'NONE', 'WORKASPACE' ) );
#172 = CIRCLE ( 'NONE', #379, 0.06299212598425188436 ) ;
#173 = DIRECTION ( 'NONE',  ( 0.000000000000000000, 0.000000000000000000, -1.000000000000000000 ) ) ;
#174 = CARTESIAN_POINT ( 'NONE',  ( 0.000000000000000000, 1.446433227339393149E-17, 0.1181102362204724116 ) ) ;
#175 = SHAPE_DEFINITION_REPRESENTATION ( #205, #22 ) ;
#176 = PRESENTATION_STYLE_ASSIGNMENT (( #204 ) ) ;
#177 = ADVANCED_FACE ( 'NONE', ( #212, #147 ), #386, .T. ) ;
#178 = CARTESIAN_POINT ( 'NONE',  ( 0.000000000000000000, 0.000000000000000000, 0.000000000000000000 ) ) ;
#179 = FACE_OUTER_BOUND ( 'NONE', #190, .T. ) ;
#180 = VERTEX_POINT ( 'NONE', #308 ) ;
#181 = EDGE_CURVE ( 'NONE', #346, #184, #290, .T. ) ;
#182 = CARTESIAN_POINT ( 'NONE',  ( -1.000000000000000000, 0.000000000000000000, -0.01574803149606298150 ) ) ;
#183 = CARTESIAN_POINT ( 'NONE',  ( 0.000000000000000000, 0.000000000000000000, -0.06299212598425187049 ) ) ;
#184 = VERTEX_POINT ( 'NONE', #333 ) ;
#185 = CARTESIAN_POINT ( 'NONE',  ( -0.3499999999999999778, 0.000000000000000000, -0.07874015748031495954 ) ) ;
#186 = EDGE_LOOP ( 'NONE', ( #68, #48, #158, #130 ) ) ;
#187 =( GEOMETRIC_REPRESENTATION_CONTEXT ( 3 ) GLOBAL_UNCERTAINTY_ASSIGNED_CONTEXT ( ( #246 ) ) GLOBAL_UNIT_ASSIGNED_CONTEXT ( ( #258, #255, #228 ) ) REPRESENTATION_CONTEXT ( 'NONE', 'WORKASPACE' ) );
#188 = EDGE_CURVE ( 'NONE', #138, #221, #275, .T. ) ;
#189 = VECTOR ( 'NONE', #196, 39.37007874015748143 ) ;
#190 = EDGE_LOOP ( 'NONE', ( #256, #8 ) ) ;
#191 = LENGTH_MEASURE_WITH_UNIT ( LENGTH_MEASURE( 0.02539999999999999897 ), #46 );
#192 = ORIENTED_EDGE ( 'NONE', *, *, #385, .T. ) ;
#193 = LINE ( 'NONE', #347, #23 ) ;
#194 = CARTESIAN_POINT ( 'NONE',  ( -1.000000000000000000, 0.000000000000000000, 0.000000000000000000 ) ) ;
#195 = CLOSED_SHELL ( 'NONE', ( #110, #6, #129, #97, #229, #114, #43, #280, #177, #257, #163, #252, #366 ) ) ;
#196 = DIRECTION ( 'NONE',  ( 1.000000000000000000, -0.000000000000000000, -0.000000000000000000 ) ) ;
#197 = ORIENTED_EDGE ( 'NONE', *, *, #135, .T. ) ;
#198 = ORIENTED_EDGE ( 'NONE', *, *, #243, .T. ) ;
#199 = CARTESIAN_POINT ( 'NONE',  ( -0.3499999999999999778, 0.07874015748031495954, 0.000000000000000000 ) ) ;
#200 = AXIS2_PLACEMENT_3D ( 'NONE', #7, #100, #122 ) ;
#201 = VECTOR ( 'NONE', #126, 39.37007874015748143 ) ;
#202 = CARTESIAN_POINT ( 'NONE',  ( -0.7499999999999998890, 7.714310545810088886E-18, 0.06299212598425188436 ) ) ;
#203 = APPLICATION_CONTEXT ( 'automotive_design' ) ;
#204 = SURFACE_STYLE_USAGE ( .BOTH. , #145 ) ;
#205 = PRODUCT_DEFINITION_SHAPE ( 'NONE', 'NONE',  #169 ) ;
#206 = STYLED_ITEM ( 'NONE', ( #134 ), #22 ) ;
#207 = CARTESIAN_POINT ( 'NONE',  ( 0.000000000000000000, 0.000000000000000000, 0.000000000000000000 ) ) ;
#208 = AXIS2_PLACEMENT_3D ( 'NONE', #305, #273, #173 ) ;
#209 = VECTOR ( 'NONE', #75, 39.37007874015748143 ) ;
#210 =( LENGTH_UNIT ( ) NAMED_UNIT ( * ) SI_UNIT ( $, .METRE. ) );
#211 = EDGE_CURVE ( 'NONE', #101, #73, #337, .T. ) ;
#212 = FACE_BOUND ( 'NONE', #80, .T. ) ;
#213 = ORIENTED_EDGE ( 'NONE', *, *, #56, .T. ) ;
#214 = CARTESIAN_POINT ( 'NONE',  ( 0.000000000000000000, 0.000000000000000000, 0.000000000000000000 ) ) ;
#215 =( GEOMETRIC_REPRESENTATION_CONTEXT ( 3 ) GLOBAL_UNCERTAINTY_ASSIGNED_CONTEXT ( ( #238 ) ) GLOBAL_UNIT_ASSIGNED_CONTEXT ( ( #296, #112, #328 ) ) REPRESENTATION_CONTEXT ( 'NONE', 'WORKASPACE' ) );
#216 = ORIENTED_EDGE ( 'NONE', *, *, #375, .T. ) ;
#217 = AXIS2_PLACEMENT_3D ( 'NONE', #45, #259, #380 ) ;
#218 = DIRECTION ( 'NONE',  ( 0.000000000000000000, 0.000000000000000000, -1.000000000000000000 ) ) ;
#219 = DIMENSIONAL_EXPONENTS ( 1.000000000000000000, 0.000000000000000000, 0.000000000000000000, 0.000000000000000000, 0.000000000000000000, 0.000000000000000000, 0.000000000000000000 ) ;
#220 = VERTEX_POINT ( 'NONE', #185 ) ;
#221 = VERTEX_POINT ( 'NONE', #98 ) ;
#222 = PRODUCT_RELATED_PRODUCT_CATEGORY ( 'part', '', ( #241 ) ) ;
#223 = DIRECTION ( 'NONE',  ( 1.000000000000000000, -0.000000000000000000, -0.000000000000000000 ) ) ;
#224 = ORIENTED_EDGE ( 'NONE', *, *, #389, .T. ) ;
#225 = AXIS2_PLACEMENT_3D ( 'NONE', #364, #253, #153 ) ;
#226 = VECTOR ( 'NONE', #232, 39.37007874015748143 ) ;
#227 = ORIENTED_EDGE ( 'NONE', *, *, #135, .F. ) ;
#228 =( NAMED_UNIT ( * ) SI_UNIT ( $, .STERADIAN. ) SOLID_ANGLE_UNIT ( ) );
#229 = ADVANCED_FACE ( 'NONE', ( #179 ), #274, .T. ) ;
#230 = DIMENSIONAL_EXPONENTS ( 1.000000000000000000, 0.000000000000000000, 0.000000000000000000, 0.000000000000000000, 0.000000000000000000, 0.000000000000000000, 0.000000000000000000 ) ;
#231 = ORIENTED_EDGE ( 'NONE', *, *, #119, .T. ) ;
#232 = DIRECTION ( 'NONE',  ( 1.000000000000000000, -0.000000000000000000, -0.000000000000000000 ) ) ;
#233 = EDGE_LOOP ( 'NONE', ( #125, #10 ) ) ;
#234 = CARTESIAN_POINT ( 'NONE',  ( 0.000000000000000000, 0.000000000000000000, -0.1181102362204724116 ) ) ;
#235 = ORIENTED_EDGE ( 'NONE', *, *, #287, .T. ) ;
#236 = FACE_OUTER_BOUND ( 'NONE', #62, .T. ) ;
#237 = FACE_OUTER_BOUND ( 'NONE', #233, .T. ) ;
#238 = UNCERTAINTY_MEASURE_WITH_UNIT (LENGTH_MEASURE( 1.000000000000000082E-05 ), #296, 'distance_accuracy_value', 'NONE');
#239 = CYLINDRICAL_SURFACE ( 'NONE', #282, 0.06299212598425187049 ) ;
#240 = EDGE_CURVE ( 'NONE', #105, #73, #120, .T. ) ;
#241 = PRODUCT ( 'LCCN45952_3D', 'LCCN45952_3D', '', ( #331 ) ) ;
#242 = FILL_AREA_STYLE_COLOUR ( '', #306 ) ;
#243 = EDGE_CURVE ( 'NONE', #381, #346, #314, .T. ) ;
#244 = CARTESIAN_POINT ( 'NONE',  ( -0.7499999999999998890, 0.000000000000000000, -0.06299212598425188436 ) ) ;
#245 = ORIENTED_EDGE ( 'NONE', *, *, #188, .F. ) ;
#246 = UNCERTAINTY_MEASURE_WITH_UNIT (LENGTH_MEASURE( 1.000000000000000082E-05 ), #258, 'distance_accuracy_value', 'NONE');
#247 = DIRECTION ( 'NONE',  ( 0.000000000000000000, 0.000000000000000000, -1.000000000000000000 ) ) ;
#248 = ORIENTED_EDGE ( 'NONE', *, *, #389, .F. ) ;
#249 = DIRECTION ( 'NONE',  ( 0.000000000000000000, 0.000000000000000000, -1.000000000000000000 ) ) ;
#250 = LINE ( 'NONE', #260, #226 ) ;
#251 = ORIENTED_EDGE ( 'NONE', *, *, #267, .T. ) ;
#252 = ADVANCED_FACE ( 'NONE', ( #154 ), #367, .T. ) ;
#253 = DIRECTION ( 'NONE',  ( 1.000000000000000000, -0.000000000000000000, -0.000000000000000000 ) ) ;
#254 = ORIENTED_EDGE ( 'NONE', *, *, #119, .F. ) ;
#255 =( NAMED_UNIT ( * ) PLANE_ANGLE_UNIT ( ) SI_UNIT ( $, .RADIAN. ) );
#256 = ORIENTED_EDGE ( 'NONE', *, *, #71, .F. ) ;
#257 = ADVANCED_FACE ( 'NONE', ( #335 ), #373, .T. ) ;
#258 =( CONVERSION_BASED_UNIT ( 'INCH', #191 ) LENGTH_UNIT ( ) NAMED_UNIT ( #230 ) );
#259 = DIRECTION ( 'NONE',  ( -1.000000000000000000, 0.000000000000000000, 0.000000000000000000 ) ) ;
#260 = CARTESIAN_POINT ( 'NONE',  ( 0.000000000000000000, 0.000000000000000000, -0.07874015748031495954 ) ) ;
#261 = DIRECTION ( 'NONE',  ( 0.000000000000000000, 0.000000000000000000, -1.000000000000000000 ) ) ;
#262 =( LENGTH_UNIT ( ) NAMED_UNIT ( * ) SI_UNIT ( $, .METRE. ) );
#263 = EDGE_LOOP ( 'NONE', ( #248, #245 ) ) ;
#264 = SURFACE_SIDE_STYLE ('',( #44 ) ) ;
#265 = VERTEX_POINT ( 'NONE', #182 ) ;
#266 = AXIS2_PLACEMENT_3D ( 'NONE', #14, #320, #70 ) ;
#267 = EDGE_CURVE ( 'NONE', #365, #49, #69, .T. ) ;
#268 = APPLICATION_PROTOCOL_DEFINITION ( 'draft international standard', 'automotive_design', 1998, #293 ) ;
#269 = CARTESIAN_POINT ( 'NONE',  ( -0.3499999999999999778, 0.000000000000000000, -0.1181102362204724116 ) ) ;
#270 = DIRECTION ( 'NONE',  ( 0.000000000000000000, 0.000000000000000000, -1.000000000000000000 ) ) ;
#271 = FACE_OUTER_BOUND ( 'NONE', #338, .T. ) ;
#272 = CARTESIAN_POINT ( 'NONE',  ( -0.3499999999999999778, 9.642888182262623048E-18, 0.07874015748031495954 ) ) ;
#273 = DIRECTION ( 'NONE',  ( 1.000000000000000000, -0.000000000000000000, -0.000000000000000000 ) ) ;
#274 = PLANE ( 'NONE',  #200 ) ;
#275 = CIRCLE ( 'NONE', #116, 0.07874015748031495954 ) ;
#276 = CIRCLE ( 'NONE', #266, 0.06299212598425188436 ) ;
#277 = CARTESIAN_POINT ( 'NONE',  ( 0.000000000000000000, 0.000000000000000000, 0.000000000000000000 ) ) ;
#278 = ORIENTED_EDGE ( 'NONE', *, *, #65, .T. ) ;
#279 = DIRECTION ( 'NONE',  ( 1.000000000000000000, -0.000000000000000000, -0.000000000000000000 ) ) ;
#280 = ADVANCED_FACE ( 'NONE', ( #311 ), #57, .T. ) ;
#281 = DIRECTION ( 'NONE',  ( 0.000000000000000000, 0.000000000000000000, -1.000000000000000000 ) ) ;
#282 = AXIS2_PLACEMENT_3D ( 'NONE', #178, #357, #141 ) ;
#283 = DIRECTION ( 'NONE',  ( 1.000000000000000000, -0.000000000000000000, -0.000000000000000000 ) ) ;
#284 = VERTEX_POINT ( 'NONE', #244 ) ;
#285 = LINE ( 'NONE', #291, #189 ) ;
#286 = DIRECTION ( 'NONE',  ( 1.000000000000000000, -0.000000000000000000, -0.000000000000000000 ) ) ;
#287 = EDGE_CURVE ( 'NONE', #284, #166, #172, .T. ) ;
#288 = CARTESIAN_POINT ( 'NONE',  ( 0.000000000000000000, 0.000000000000000000, 0.000000000000000000 ) ) ;
#289 = EDGE_LOOP ( 'NONE', ( #334, #156 ) ) ;
#290 = CIRCLE ( 'NONE', #225, 0.01574803149606299885 ) ;
#291 = CARTESIAN_POINT ( 'NONE',  ( 0.000000000000000000, 1.446433227339393149E-17, 0.1181102362204724116 ) ) ;
#292 = LINE ( 'NONE', #18, #209 ) ;
#293 = APPLICATION_CONTEXT ( 'automotive_design' ) ;
#294 = DIRECTION ( 'NONE',  ( 0.000000000000000000, 0.000000000000000000, -1.000000000000000000 ) ) ;
#295 = FACE_OUTER_BOUND ( 'NONE', #382, .T. ) ;
#296 =( CONVERSION_BASED_UNIT ( 'INCH', #160 ) LENGTH_UNIT ( ) NAMED_UNIT ( #16 ) );
#297 = ORIENTED_EDGE ( 'NONE', *, *, #315, .T. ) ;
#298 = AXIS2_PLACEMENT_3D ( 'NONE', #199, #168, #24 ) ;
#299 = LENGTH_MEASURE_WITH_UNIT ( LENGTH_MEASURE( 0.02539999999999999897 ), #210 );
#300 = VECTOR ( 'NONE', #223, 39.37007874015748143 ) ;
#301 = FILL_AREA_STYLE ('',( #242 ) ) ;
#302 = EDGE_CURVE ( 'NONE', #220, #151, #140, .T. ) ;
#303 = DIRECTION ( 'NONE',  ( 1.000000000000000000, -0.000000000000000000, -0.000000000000000000 ) ) ;
#304 = CIRCLE ( 'NONE', #30, 0.07874015748031495954 ) ;
#305 = CARTESIAN_POINT ( 'NONE',  ( 0.000000000000000000, 0.000000000000000000, 0.000000000000000000 ) ) ;
#306 = COLOUR_RGB ( '',0.6862745098039215730, 0.6078431372549019107, 0.5294117647058823595 ) ;
#307 = CARTESIAN_POINT ( 'NONE',  ( -0.8499999999999999778, 0.000000000000000000, 0.000000000000000000 ) ) ;
#308 = CARTESIAN_POINT ( 'NONE',  ( -0.3499999999999999778, 1.446433227339393149E-17, 0.1181102362204724116 ) ) ;
#309 = CARTESIAN_POINT ( 'NONE',  ( -0.7499999999999998890, 0.06299212598425188436, 0.000000000000000000 ) ) ;
#310 = CIRCLE ( 'NONE', #27, 0.01574803149606298150 ) ;
#311 = FACE_OUTER_BOUND ( 'NONE', #109, .T. ) ;
#312 = DIRECTION ( 'NONE',  ( 0.000000000000000000, 0.000000000000000000, -1.000000000000000000 ) ) ;
#313 = COLOUR_RGB ( '',0.6862745098039215730, 0.6078431372549019107, 0.5294117647058823595 ) ;
#314 = LINE ( 'NONE', #36, #300 ) ;
#315 = EDGE_CURVE ( 'NONE', #49, #284, #63, .T. ) ;
#316 = FILL_AREA_STYLE ('',( #345 ) ) ;
#317 = CARTESIAN_POINT ( 'NONE',  ( 0.000000000000000000, 0.000000000000000000, -0.01574803149606299191 ) ) ;
#318 = CYLINDRICAL_SURFACE ( 'NONE', #336, 0.07874015748031495954 ) ;
#319 = CIRCLE ( 'NONE', #162, 0.07874015748031495954 ) ;
#320 = DIRECTION ( 'NONE',  ( 1.000000000000000000, -0.000000000000000000, -0.000000000000000000 ) ) ;
#321 = DIRECTION ( 'NONE',  ( 1.000000000000000000, -0.000000000000000000, -0.000000000000000000 ) ) ;
#322 = CARTESIAN_POINT ( 'NONE',  ( -0.7499999999999998890, 0.000000000000000000, 0.000000000000000000 ) ) ;
#323 = ORIENTED_EDGE ( 'NONE', *, *, #240, .F. ) ;
#324 = CARTESIAN_POINT ( 'NONE',  ( 0.000000000000000000, 0.000000000000000000, 0.000000000000000000 ) ) ;
#325 = CARTESIAN_POINT ( 'NONE',  ( 0.000000000000000000, 0.000000000000000000, 0.000000000000000000 ) ) ;
#326 =( CONVERSION_BASED_UNIT ( 'INCH', #299 ) LENGTH_UNIT ( ) NAMED_UNIT ( #219 ) );
#327 = EDGE_CURVE ( 'NONE', #221, #220, #250, .T. ) ;
#328 =( NAMED_UNIT ( * ) SI_UNIT ( $, .STERADIAN. ) SOLID_ANGLE_UNIT ( ) );
#329 = CARTESIAN_POINT ( 'NONE',  ( 0.000000000000000000, 0.000000000000000000, 0.000000000000000000 ) ) ;
#330 = PRODUCT_DEFINITION_FORMATION_WITH_SPECIFIED_SOURCE ( 'ANY', '', #241, .NOT_KNOWN. ) ;
#331 = PRODUCT_CONTEXT ( 'NONE', #203, 'mechanical' ) ;
#332 = DIRECTION ( 'NONE',  ( 0.000000000000000000, 0.000000000000000000, -1.000000000000000000 ) ) ;
#333 = CARTESIAN_POINT ( 'NONE',  ( -0.8499999999999999778, 0.000000000000000000, -0.01574803149606299885 ) ) ;
#334 = ORIENTED_EDGE ( 'NONE', *, *, #302, .T. ) ;
#335 = FACE_OUTER_BOUND ( 'NONE', #186, .T. ) ;
#336 = AXIS2_PLACEMENT_3D ( 'NONE', #325, #286, #15 ) ;
#337 = LINE ( 'NONE', #150, #378 ) ;
#338 = EDGE_LOOP ( 'NONE', ( #355, #384, #136, #4 ) ) ;
#339 = DIRECTION ( 'NONE',  ( -1.000000000000000000, 0.000000000000000000, 0.000000000000000000 ) ) ;
#340 = EDGE_LOOP ( 'NONE', ( #342, #192, #59, #37 ) ) ;
#341 = CARTESIAN_POINT ( 'NONE',  ( -0.8499999999999999778, 1.928577636452525688E-18, 0.01574803149606299885 ) ) ;
#342 = ORIENTED_EDGE ( 'NONE', *, *, #142, .T. ) ;
#343 = PRESENTATION_LAYER_ASSIGNMENT (  '', '', ( #38 ) ) ;
#344 = AXIS2_PLACEMENT_3D ( 'NONE', #214, #60, #369 ) ;
#345 = FILL_AREA_STYLE_COLOUR ( '', #313 ) ;
#346 = VERTEX_POINT ( 'NONE', #341 ) ;
#347 = CARTESIAN_POINT ( 'NONE',  ( 0.000000000000000000, 7.714310545810087345E-18, 0.06299212598425187049 ) ) ;
#348 = CARTESIAN_POINT ( 'NONE',  ( -0.8499999999999999778, 0.000000000000000000, -0.06299212598425185661 ) ) ;
#349 = DIRECTION ( 'NONE',  ( 1.000000000000000000, -0.000000000000000000, -0.000000000000000000 ) ) ;
#350 = LINE ( 'NONE', #317, #111 ) ;
#351 = EDGE_CURVE ( 'NONE', #381, #265, #32, .T. ) ;
#352 = AXIS2_PLACEMENT_3D ( 'NONE', #165, #133, #261 ) ;
#353 = CARTESIAN_POINT ( 'NONE',  ( -1.000000000000000000, 0.000000000000000000, 0.000000000000000000 ) ) ;
#354 = CARTESIAN_POINT ( 'NONE',  ( -0.3499999999999999778, 0.000000000000000000, 0.000000000000000000 ) ) ;
#355 = ORIENTED_EDGE ( 'NONE', *, *, #243, .F. ) ;
#356 = EDGE_CURVE ( 'NONE', #166, #284, #276, .T. ) ;
#357 = DIRECTION ( 'NONE',  ( 1.000000000000000000, -0.000000000000000000, -0.000000000000000000 ) ) ;
#358 = UNCERTAINTY_MEASURE_WITH_UNIT (LENGTH_MEASURE( 1.000000000000000082E-05 ), #326, 'distance_accuracy_value', 'NONE');
#359 = CIRCLE ( 'NONE', #208, 0.1181102362204724116 ) ;
#360 = DIRECTION ( 'NONE',  ( 1.000000000000000000, 0.000000000000000000, 0.000000000000000000 ) ) ;
#361 = SURFACE_STYLE_FILL_AREA ( #301 ) ;
#362 = DIRECTION ( 'NONE',  ( 0.000000000000000000, 0.000000000000000000, -1.000000000000000000 ) ) ;
#363 = AXIS2_PLACEMENT_3D ( 'NONE', #128, #93, #312 ) ;
#364 = CARTESIAN_POINT ( 'NONE',  ( -0.8499999999999999778, 0.000000000000000000, 0.000000000000000000 ) ) ;
#365 = VERTEX_POINT ( 'NONE', #137 ) ;
#366 = ADVANCED_FACE ( 'NONE', ( #108 ), #40, .T. ) ;
#367 = CYLINDRICAL_SURFACE ( 'NONE', #363, 0.1181102362204724116 ) ;
#368 = EDGE_LOOP ( 'NONE', ( #34, #216, #254, #12 ) ) ;
#369 = DIRECTION ( 'NONE',  ( 0.000000000000000000, 0.000000000000000000, -1.000000000000000000 ) ) ;
#370 = ORIENTED_EDGE ( 'NONE', *, *, #71, .T. ) ;
#371 = DIRECTION ( 'NONE',  ( 1.000000000000000000, -0.000000000000000000, -0.000000000000000000 ) ) ;
#372 = ORIENTED_EDGE ( 'NONE', *, *, #142, .F. ) ;
#373 = CYLINDRICAL_SURFACE ( 'NONE', #344, 0.07874015748031495954 ) ;
#374 = EDGE_LOOP ( 'NONE', ( #197, #155 ) ) ;
#375 = EDGE_CURVE ( 'NONE', #180, #105, #285, .T. ) ;
#376 = DIRECTION ( 'NONE',  ( -0.000000000000000000, 0.000000000000000000, -1.000000000000000000 ) ) ;
#377 = ORIENTED_EDGE ( 'NONE', *, *, #356, .F. ) ;
#378 = VECTOR ( 'NONE', #283, 39.37007874015748143 ) ;
#379 = AXIS2_PLACEMENT_3D ( 'NONE', #152, #279, #9 ) ;
#380 = DIRECTION ( 'NONE',  ( 0.000000000000000000, 0.000000000000000000, 1.000000000000000000 ) ) ;
#381 = VERTEX_POINT ( 'NONE', #131 ) ;
#382 = EDGE_LOOP ( 'NONE', ( #372, #17 ) ) ;
#383 = CIRCLE ( 'NONE', #87, 0.1181102362204724116 ) ;
#384 = ORIENTED_EDGE ( 'NONE', *, *, #351, .T. ) ;
#385 = EDGE_CURVE ( 'NONE', #365, #166, #193, .T. ) ;
#386 = PLANE ( 'NONE',  #3 ) ;
#387 = DIRECTION ( 'NONE',  ( 0.000000000000000000, 0.000000000000000000, -1.000000000000000000 ) ) ;
#388 = DIRECTION ( 'NONE',  ( 1.000000000000000000, -0.000000000000000000, -0.000000000000000000 ) ) ;
#389 = EDGE_CURVE ( 'NONE', #221, #138, #304, .T. ) ;
ENDSEC;
END-ISO-10303-21;
