ISO-10303-21;
HEADER;
FILE_DESCRIPTION (( 'STEP AP214' ),
    '1' );
FILE_NAME ('DSTCP-C-125MM.STEP',
    '2020-08-24T16:24:28',
    ( '' ),
    ( '' ),
    'SwSTEP 2.0',
    'SolidWorks 2018',
    '' );
FILE_SCHEMA (( 'AUTOMOTIVE_DESIGN' ));
ENDSEC;

DATA;
#1 = DIRECTION ( 'NONE',  ( 0.0000000000000000000, 0.0000000000000000000, -1.000000000000000000 ) ) ;
#2 = ADVANCED_FACE ( 'NONE', ( #136 ), #120, .T. ) ;
#3 = AXIS2_PLACEMENT_3D ( 'NONE', #306, #113, #17 ) ;
#4 = ORIENTED_EDGE ( 'NONE', *, *, #81, .T. ) ;
#5 = EDGE_CURVE ( 'NONE', #230, #6, #29, .T. ) ;
#6 = VERTEX_POINT ( 'NONE', #119 ) ;
#7 = DIMENSIONAL_EXPONENTS ( 1.000000000000000000, 0.0000000000000000000, 0.0000000000000000000, 0.0000000000000000000, 0.0000000000000000000, 0.0000000000000000000, 0.0000000000000000000 ) ;
#8 = DIRECTION ( 'NONE',  ( 1.000000000000000000, 0.0000000000000000000, 0.0000000000000000000 ) ) ;
#9 = CARTESIAN_POINT ( 'NONE',  ( 0.2657480314960630197, 0.0000000000000000000, 0.0000000000000000000 ) ) ;
#10 = CARTESIAN_POINT ( 'NONE',  ( 0.06102362204724410405, 0.0000000000000000000, -0.04921259842519685318 ) ) ;
#11 = EDGE_LOOP ( 'NONE', ( #85, #112 ) ) ;
#12 = AXIS2_PLACEMENT_3D ( 'NONE', #101, #54, #277 ) ;
#13 = CARTESIAN_POINT ( 'NONE',  ( 0.06102362204724410405, 3.375010863791918221E-18, 0.02755905511811023584 ) ) ;
#14 = LINE ( 'NONE', #13, #264 ) ;
#15 = DIRECTION ( 'NONE',  ( -1.000000000000000000, -0.0000000000000000000, -0.0000000000000000000 ) ) ;
#16 = AXIS2_PLACEMENT_3D ( 'NONE', #228, #178, #74 ) ;
#17 = DIRECTION ( 'NONE',  ( 0.0000000000000000000, 0.0000000000000000000, -1.000000000000000000 ) ) ;
#18 = SURFACE_STYLE_USAGE ( .BOTH. , #185 ) ;
#19 =( LENGTH_UNIT ( ) NAMED_UNIT ( * ) SI_UNIT ( $, .METRE. ) );
#20 = ORIENTED_EDGE ( 'NONE', *, *, #177, .T. ) ;
#21 = AXIS2_PLACEMENT_3D ( 'NONE', #276, #226, #78 ) ;
#22 = ADVANCED_FACE ( 'NONE', ( #282 ), #160, .F. ) ;
#23 = LINE ( 'NONE', #245, #110 ) ;
#24 = EDGE_LOOP ( 'NONE', ( #218, #296 ) ) ;
#25 = AXIS2_PLACEMENT_3D ( 'NONE', #285, #135, #304 ) ;
#26 = VECTOR ( 'NONE', #250, 39.37007874015748143 ) ;
#27 = DIRECTION ( 'NONE',  ( 0.0000000000000000000, 0.0000000000000000000, -1.000000000000000000 ) ) ;
#28 = VERTEX_POINT ( 'NONE', #269 ) ;
#29 = CIRCLE ( 'NONE', #33, 0.07480314960629921850 ) ;
#30 = PRODUCT_RELATED_PRODUCT_CATEGORY ( 'part', '', ( #167 ) ) ;
#31 = DIRECTION ( 'NONE',  ( 1.000000000000000000, -0.0000000000000000000, -0.0000000000000000000 ) ) ;
#32 = LINE ( 'NONE', #144, #205 ) ;
#33 = AXIS2_PLACEMENT_3D ( 'NONE', #69, #288, #1 ) ;
#34 = VECTOR ( 'NONE', #169, 39.37007874015748143 ) ;
#35 = EDGE_LOOP ( 'NONE', ( #192, #123, #196, #70 ) ) ;
#36 = DIRECTION ( 'NONE',  ( 0.0000000000000000000, 0.0000000000000000000, 1.000000000000000000 ) ) ;
#37 = EDGE_CURVE ( 'NONE', #201, #278, #153, .T. ) ;
#38 =( CONVERSION_BASED_UNIT ( 'INCH', #39 ) LENGTH_UNIT ( ) NAMED_UNIT ( #265 ) );
#39 = LENGTH_MEASURE_WITH_UNIT ( LENGTH_MEASURE( 0.02539999999999999897 ), #307 );
#40 = DIRECTION ( 'NONE',  ( 1.000000000000000000, -0.0000000000000000000, 0.0000000000000000000 ) ) ;
#41 = DIRECTION ( 'NONE',  ( 1.000000000000000000, 0.0000000000000000000, 0.0000000000000000000 ) ) ;
#42 = DIRECTION ( 'NONE',  ( -1.000000000000000000, -0.0000000000000000000, -0.0000000000000000000 ) ) ;
#43 = DIMENSIONAL_EXPONENTS ( 1.000000000000000000, 0.0000000000000000000, 0.0000000000000000000, 0.0000000000000000000, 0.0000000000000000000, 0.0000000000000000000, 0.0000000000000000000 ) ;
#44 = ADVANCED_FACE ( 'NONE', ( #298, #164 ), #198, .T. ) ;
#45 = ADVANCED_FACE ( 'NONE', ( #46, #253 ), #127, .T. ) ;
#46 = FACE_BOUND ( 'NONE', #173, .T. ) ;
#47 = CARTESIAN_POINT ( 'NONE',  ( 0.06102362204724410405, 0.0000000000000000000, 0.0000000000000000000 ) ) ;
#48 = AXIS2_PLACEMENT_3D ( 'NONE', #47, #31, #131 ) ;
#49 = DIRECTION ( 'NONE',  ( 0.0000000000000000000, 0.0000000000000000000, -1.000000000000000000 ) ) ;
#50 = CARTESIAN_POINT ( 'NONE',  ( 0.06102362204724410405, 0.0000000000000000000, 0.0000000000000000000 ) ) ;
#51 = CARTESIAN_POINT ( 'NONE',  ( 0.06102362204724410405, 0.0000000000000000000, -0.04921259842519685318 ) ) ;
#52 = CARTESIAN_POINT ( 'NONE',  ( 0.06102362204724410405, 0.0000000000000000000, -0.02755905511811023584 ) ) ;
#53 = STYLED_ITEM ( 'NONE', ( #238 ), #236 ) ;
#54 = DIRECTION ( 'NONE',  ( 1.000000000000000000, -0.0000000000000000000, 0.0000000000000000000 ) ) ;
#55 = DIRECTION ( 'NONE',  ( 1.000000000000000000, 0.0000000000000000000, 0.0000000000000000000 ) ) ;
#56 = CYLINDRICAL_SURFACE ( 'NONE', #132, 0.07480314960629921850 ) ;
#57 = ORIENTED_EDGE ( 'NONE', *, *, #129, .T. ) ;
#58 = APPLICATION_CONTEXT ( 'automotive_design' ) ;
#59 = SURFACE_STYLE_FILL_AREA ( #303 ) ;
#60 = SURFACE_SIDE_STYLE ('',( #154 ) ) ;
#61 = ORIENTED_EDGE ( 'NONE', *, *, #37, .T. ) ;
#62 = CARTESIAN_POINT ( 'NONE',  ( 0.2657480314960630197, 6.026805113914140175E-18, 0.04921259842519685318 ) ) ;
#63 = AXIS2_PLACEMENT_3D ( 'NONE', #9, #72, #268 ) ;
#64 = ORIENTED_EDGE ( 'NONE', *, *, #293, .F. ) ;
#65 = ORIENTED_EDGE ( 'NONE', *, *, #293, .T. ) ;
#66 = FACE_OUTER_BOUND ( 'NONE', #11, .T. ) ;
#67 = AXIS2_PLACEMENT_3D ( 'NONE', #114, #206, #41 ) ;
#68 = UNCERTAINTY_MEASURE_WITH_UNIT (LENGTH_MEASURE( 1.000000000000000082E-05 ), #82, 'distance_accuracy_value', 'NONE');
#69 = CARTESIAN_POINT ( 'NONE',  ( 0.0000000000000000000, 0.0000000000000000000, 0.0000000000000000000 ) ) ;
#70 = ORIENTED_EDGE ( 'NONE', *, *, #140, .F. ) ;
#71 = CARTESIAN_POINT ( 'NONE',  ( 0.06102362204724410405, 0.0000000000000000000, 0.0000000000000000000 ) ) ;
#72 = DIRECTION ( 'NONE',  ( 1.000000000000000000, 0.0000000000000000000, 0.0000000000000000000 ) ) ;
#73 = CYLINDRICAL_SURFACE ( 'NONE', #84, 0.04921259842519685318 ) ;
#74 = DIRECTION ( 'NONE',  ( 0.0000000000000000000, 0.0000000000000000000, -1.000000000000000000 ) ) ;
#75 = CIRCLE ( 'NONE', #96, 0.04921259842519685318 ) ;
#76 = VERTEX_POINT ( 'NONE', #126 ) ;
#77 = PRESENTATION_LAYER_ASSIGNMENT (  '', '', ( #53 ) ) ;
#78 = DIRECTION ( 'NONE',  ( 0.0000000000000000000, 0.0000000000000000000, -1.000000000000000000 ) ) ;
#79 = CARTESIAN_POINT ( 'NONE',  ( 0.2657480314960630197, 0.0000000000000000000, 0.0000000000000000000 ) ) ;
#80 = CIRCLE ( 'NONE', #12, 0.04921259842519685318 ) ;
#81 = EDGE_CURVE ( 'NONE', #94, #161, #291, .T. ) ;
#82 =( CONVERSION_BASED_UNIT ( 'INCH', #165 ) LENGTH_UNIT ( ) NAMED_UNIT ( #7 ) );
#83 = EDGE_CURVE ( 'NONE', #105, #76, #227, .T. ) ;
#84 = AXIS2_PLACEMENT_3D ( 'NONE', #50, #128, #151 ) ;
#85 = ORIENTED_EDGE ( 'NONE', *, *, #177, .F. ) ;
#86 = CARTESIAN_POINT ( 'NONE',  ( 0.0000000000000000000, 9.160743773149492203E-18, -0.07480314960629921850 ) ) ;
#87 = EDGE_CURVE ( 'NONE', #224, #174, #80, .T. ) ;
#88 = ORIENTED_EDGE ( 'NONE', *, *, #175, .T. ) ;
#89 = VERTEX_POINT ( 'NONE', #51 ) ;
#90 = CARTESIAN_POINT ( 'NONE',  ( 0.0000000000000000000, 0.0000000000000000000, 0.0000000000000000000 ) ) ;
#91 = EDGE_CURVE ( 'NONE', #174, #224, #220, .T. ) ;
#92 = LINE ( 'NONE', #10, #34 ) ;
#93 = CARTESIAN_POINT ( 'NONE',  ( 0.06102362204724410405, 0.0000000000000000000, 0.0000000000000000000 ) ) ;
#94 = VERTEX_POINT ( 'NONE', #229 ) ;
#95 = DIRECTION ( 'NONE',  ( 1.000000000000000000, -0.0000000000000000000, 0.0000000000000000000 ) ) ;
#96 = AXIS2_PLACEMENT_3D ( 'NONE', #231, #103, #204 ) ;
#97 = DIRECTION ( 'NONE',  ( 1.000000000000000000, -0.0000000000000000000, 0.0000000000000000000 ) ) ;
#98 = DIRECTION ( 'NONE',  ( 0.0000000000000000000, 0.0000000000000000000, -1.000000000000000000 ) ) ;
#99 = ORIENTED_EDGE ( 'NONE', *, *, #91, .T. ) ;
#100 = UNCERTAINTY_MEASURE_WITH_UNIT (LENGTH_MEASURE( 1.000000000000000082E-05 ), #38, 'distance_accuracy_value', 'NONE');
#101 = CARTESIAN_POINT ( 'NONE',  ( 0.2657480314960630197, 0.0000000000000000000, 0.0000000000000000000 ) ) ;
#102 = DIRECTION ( 'NONE',  ( 1.000000000000000000, -0.0000000000000000000, -0.0000000000000000000 ) ) ;
#103 = DIRECTION ( 'NONE',  ( 1.000000000000000000, -0.0000000000000000000, 0.0000000000000000000 ) ) ;
#104 = CIRCLE ( 'NONE', #241, 0.02755905511811023584 ) ;
#105 = VERTEX_POINT ( 'NONE', #176 ) ;
#106 = CARTESIAN_POINT ( 'NONE',  ( 0.0000000000000000000, 0.0000000000000000000, 0.0000000000000000000 ) ) ;
#107 = DIRECTION ( 'NONE',  ( 0.0000000000000000000, 0.0000000000000000000, -1.000000000000000000 ) ) ;
#108 = CARTESIAN_POINT ( 'NONE',  ( 0.06102362204724410405, 0.0000000000000000000, 0.0000000000000000000 ) ) ;
#109 = AXIS2_PLACEMENT_3D ( 'NONE', #168, #95, #272 ) ;
#110 = VECTOR ( 'NONE', #42, 39.37007874015748143 ) ;
#111 = ORIENTED_EDGE ( 'NONE', *, *, #195, .T. ) ;
#112 = ORIENTED_EDGE ( 'NONE', *, *, #5, .F. ) ;
#113 = DIRECTION ( 'NONE',  ( 1.000000000000000000, -0.0000000000000000000, 0.0000000000000000000 ) ) ;
#114 = CARTESIAN_POINT ( 'NONE',  ( 0.0000000000000000000, 0.0000000000000000000, 0.0000000000000000000 ) ) ;
#115 = EDGE_CURVE ( 'NONE', #76, #6, #32, .T. ) ;
#116 = AXIS2_PLACEMENT_3D ( 'NONE', #266, #289, #215 ) ;
#117 = ORIENTED_EDGE ( 'NONE', *, *, #87, .T. ) ;
#118 = CLOSED_SHELL ( 'NONE', ( #149, #124, #2, #219, #147, #193, #45, #44, #22, #217 ) ) ;
#119 = CARTESIAN_POINT ( 'NONE',  ( 0.0000000000000000000, 0.0000000000000000000, 0.07480314960629921850 ) ) ;
#120 = CYLINDRICAL_SURFACE ( 'NONE', #116, 0.07480314960629921850 ) ;
#121 = COLOUR_RGB ( '',0.4980392156862745168, 0.4980392156862745168, 0.4980392156862745168 ) ;
#122 = ORIENTED_EDGE ( 'NONE', *, *, #37, .F. ) ;
#123 = ORIENTED_EDGE ( 'NONE', *, *, #163, .T. ) ;
#124 = ADVANCED_FACE ( 'NONE', ( #155 ), #73, .T. ) ;
#125 =( GEOMETRIC_REPRESENTATION_CONTEXT ( 3 ) GLOBAL_UNCERTAINTY_ASSIGNED_CONTEXT ( ( #143 ) ) GLOBAL_UNIT_ASSIGNED_CONTEXT ( ( #210, #284, #187 ) ) REPRESENTATION_CONTEXT ( 'NONE', 'WORKASPACE' ) );
#126 = CARTESIAN_POINT ( 'NONE',  ( 0.06102362204724410405, 0.0000000000000000000, 0.07480314960629921850 ) ) ;
#127 = PLANE ( 'NONE',  #281 ) ;
#128 = DIRECTION ( 'NONE',  ( 1.000000000000000000, -0.0000000000000000000, -0.0000000000000000000 ) ) ;
#129 = EDGE_CURVE ( 'NONE', #89, #224, #92, .T. ) ;
#130 = ORIENTED_EDGE ( 'NONE', *, *, #91, .F. ) ;
#131 = DIRECTION ( 'NONE',  ( 0.0000000000000000000, 0.0000000000000000000, -1.000000000000000000 ) ) ;
#132 = AXIS2_PLACEMENT_3D ( 'NONE', #280, #15, #36 ) ;
#133 = FACE_OUTER_BOUND ( 'NONE', #158, .T. ) ;
#134 = EDGE_LOOP ( 'NONE', ( #65, #4 ) ) ;
#135 = DIRECTION ( 'NONE',  ( 1.000000000000000000, -0.0000000000000000000, 0.0000000000000000000 ) ) ;
#136 = FACE_OUTER_BOUND ( 'NONE', #170, .T. ) ;
#137 = FILL_AREA_STYLE ('',( #237 ) ) ;
#138 = SURFACE_STYLE_USAGE ( .BOTH. , #60 ) ;
#139 = ORIENTED_EDGE ( 'NONE', *, *, #191, .F. ) ;
#140 = EDGE_CURVE ( 'NONE', #161, #201, #200, .T. ) ;
#141 = APPLICATION_PROTOCOL_DEFINITION ( 'draft international standard', 'automotive_design', 1998, #58 ) ;
#142 = MECHANICAL_DESIGN_GEOMETRIC_PRESENTATION_REPRESENTATION (  '', ( #186 ), #125 ) ;
#143 = UNCERTAINTY_MEASURE_WITH_UNIT (LENGTH_MEASURE( 1.000000000000000082E-05 ), #210, 'distance_accuracy_value', 'NONE');
#144 = CARTESIAN_POINT ( 'NONE',  ( 0.2657480314960630197, 0.0000000000000000000, 0.07480314960629921850 ) ) ;
#145 = DIRECTION ( 'NONE',  ( 1.000000000000000000, -0.0000000000000000000, -0.0000000000000000000 ) ) ;
#146 = CIRCLE ( 'NONE', #25, 0.02755905511811023584 ) ;
#147 = ADVANCED_FACE ( 'NONE', ( #66 ), #249, .F. ) ;
#148 = ORIENTED_EDGE ( 'NONE', *, *, #232, .T. ) ;
#149 = ADVANCED_FACE ( 'NONE', ( #233 ), #247, .F. ) ;
#150 = AXIS2_PLACEMENT_3D ( 'NONE', #301, #102, #279 ) ;
#151 = DIRECTION ( 'NONE',  ( 0.0000000000000000000, 0.0000000000000000000, -1.000000000000000000 ) ) ;
#152 = PRESENTATION_STYLE_ASSIGNMENT (( #18 ) ) ;
#153 = CIRCLE ( 'NONE', #109, 0.02755905511811023584 ) ;
#154 = SURFACE_STYLE_FILL_AREA ( #137 ) ;
#155 = FACE_OUTER_BOUND ( 'NONE', #194, .T. ) ;
#156 = CARTESIAN_POINT ( 'NONE',  ( 0.2657480314960630197, 0.0000000000000000000, -0.02755905511811023584 ) ) ;
#157 =( LENGTH_UNIT ( ) NAMED_UNIT ( * ) SI_UNIT ( $, .METRE. ) );
#158 = EDGE_LOOP ( 'NONE', ( #139, #148, #57, #130 ) ) ;
#159 =( GEOMETRIC_REPRESENTATION_CONTEXT ( 3 ) GLOBAL_UNCERTAINTY_ASSIGNED_CONTEXT ( ( #68 ) ) GLOBAL_UNIT_ASSIGNED_CONTEXT ( ( #82, #182, #179 ) ) REPRESENTATION_CONTEXT ( 'NONE', 'WORKASPACE' ) );
#160 = CYLINDRICAL_SURFACE ( 'NONE', #48, 0.02755905511811023584 ) ;
#161 = VERTEX_POINT ( 'NONE', #172 ) ;
#162 = EDGE_LOOP ( 'NONE', ( #286, #183, #213, #20 ) ) ;
#163 = EDGE_CURVE ( 'NONE', #94, #278, #14, .T. ) ;
#164 = FACE_OUTER_BOUND ( 'NONE', #309, .T. ) ;
#165 = LENGTH_MEASURE_WITH_UNIT ( LENGTH_MEASURE( 0.02539999999999999897 ), #157 );
#166 = AXIS2_PLACEMENT_3D ( 'NONE', #79, #257, #234 ) ;
#167 = PRODUCT ( 'DSTCP-C-125MM', 'DSTCP-C-125MM', '', ( #283 ) ) ;
#168 = CARTESIAN_POINT ( 'NONE',  ( 0.2657480314960630197, 0.0000000000000000000, 0.0000000000000000000 ) ) ;
#169 = DIRECTION ( 'NONE',  ( 1.000000000000000000, -0.0000000000000000000, -0.0000000000000000000 ) ) ;
#170 = EDGE_LOOP ( 'NONE', ( #208, #88, #184, #292 ) ) ;
#171 = CIRCLE ( 'NONE', #222, 0.07480314960629921850 ) ;
#172 = CARTESIAN_POINT ( 'NONE',  ( 0.06102362204724410405, 0.0000000000000000000, -0.02755905511811023584 ) ) ;
#173 = EDGE_LOOP ( 'NONE', ( #273, #271 ) ) ;
#174 = VERTEX_POINT ( 'NONE', #62 ) ;
#175 = EDGE_CURVE ( 'NONE', #105, #230, #23, .T. ) ;
#176 = CARTESIAN_POINT ( 'NONE',  ( 0.06102362204724410405, 9.160743773149492203E-18, -0.07480314960629921850 ) ) ;
#177 = EDGE_CURVE ( 'NONE', #6, #230, #171, .T. ) ;
#178 = DIRECTION ( 'NONE',  ( 1.000000000000000000, -0.0000000000000000000, 0.0000000000000000000 ) ) ;
#179 =( NAMED_UNIT ( * ) SI_UNIT ( $, .STERADIAN. ) SOLID_ANGLE_UNIT ( ) );
#180 = FACE_OUTER_BOUND ( 'NONE', #162, .T. ) ;
#181 =( NAMED_UNIT ( * ) SI_UNIT ( $, .STERADIAN. ) SOLID_ANGLE_UNIT ( ) );
#182 =( NAMED_UNIT ( * ) PLANE_ANGLE_UNIT ( ) SI_UNIT ( $, .RADIAN. ) );
#183 = ORIENTED_EDGE ( 'NONE', *, *, #274, .F. ) ;
#184 = ORIENTED_EDGE ( 'NONE', *, *, #5, .T. ) ;
#185 = SURFACE_SIDE_STYLE ('',( #59 ) ) ;
#186 = STYLED_ITEM ( 'NONE', ( #152 ), #259 ) ;
#187 =( NAMED_UNIT ( * ) SI_UNIT ( $, .STERADIAN. ) SOLID_ANGLE_UNIT ( ) );
#188 = SHAPE_DEFINITION_REPRESENTATION ( #263, #236 ) ;
#189 = ORIENTED_EDGE ( 'NONE', *, *, #87, .F. ) ;
#190 = FACE_OUTER_BOUND ( 'NONE', #134, .T. ) ;
#191 = EDGE_CURVE ( 'NONE', #28, #174, #252, .T. ) ;
#192 = ORIENTED_EDGE ( 'NONE', *, *, #81, .F. ) ;
#193 = ADVANCED_FACE ( 'NONE', ( #133 ), #287, .T. ) ;
#194 = EDGE_LOOP ( 'NONE', ( #111, #242, #189, #197 ) ) ;
#195 = EDGE_CURVE ( 'NONE', #89, #28, #75, .T. ) ;
#196 = ORIENTED_EDGE ( 'NONE', *, *, #251, .T. ) ;
#197 = ORIENTED_EDGE ( 'NONE', *, *, #129, .F. ) ;
#198 = PLANE ( 'NONE',  #63 ) ;
#199 = LENGTH_MEASURE_WITH_UNIT ( LENGTH_MEASURE( 0.02539999999999999897 ), #19 );
#200 = LINE ( 'NONE', #52, #26 ) ;
#201 = VERTEX_POINT ( 'NONE', #156 ) ;
#202 = CARTESIAN_POINT ( 'NONE',  ( 0.2657480314960630197, 0.0000000000000000000, -0.04921259842519685318 ) ) ;
#203 = CIRCLE ( 'NONE', #295, 0.04921259842519685318 ) ;
#204 = DIRECTION ( 'NONE',  ( 0.0000000000000000000, 0.0000000000000000000, -1.000000000000000000 ) ) ;
#205 = VECTOR ( 'NONE', #294, 39.37007874015748143 ) ;
#206 = DIRECTION ( 'NONE',  ( 0.0000000000000000000, 0.0000000000000000000, 1.000000000000000000 ) ) ;
#207 = DIRECTION ( 'NONE',  ( 1.000000000000000000, -0.0000000000000000000, 0.0000000000000000000 ) ) ;
#208 = ORIENTED_EDGE ( 'NONE', *, *, #83, .F. ) ;
#209 = MECHANICAL_DESIGN_GEOMETRIC_PRESENTATION_REPRESENTATION (  '', ( #53 ), #159 ) ;
#210 =( CONVERSION_BASED_UNIT ( 'INCH', #199 ) LENGTH_UNIT ( ) NAMED_UNIT ( #43 ) );
#211 = DIRECTION ( 'NONE',  ( 0.0000000000000000000, 0.0000000000000000000, -1.000000000000000000 ) ) ;
#212 = CIRCLE ( 'NONE', #3, 0.07480314960629921850 ) ;
#213 = ORIENTED_EDGE ( 'NONE', *, *, #115, .T. ) ;
#214 = AXIS2_PLACEMENT_3D ( 'NONE', #93, #246, #27 ) ;
#215 = DIRECTION ( 'NONE',  ( 0.0000000000000000000, 0.0000000000000000000, 1.000000000000000000 ) ) ;
#216 =( GEOMETRIC_REPRESENTATION_CONTEXT ( 3 ) GLOBAL_UNCERTAINTY_ASSIGNED_CONTEXT ( ( #100 ) ) GLOBAL_UNIT_ASSIGNED_CONTEXT ( ( #38, #235, #181 ) ) REPRESENTATION_CONTEXT ( 'NONE', 'WORKASPACE' ) );
#217 = ADVANCED_FACE ( 'NONE', ( #190 ), #302, .T. ) ;
#218 = ORIENTED_EDGE ( 'NONE', *, *, #274, .T. ) ;
#219 = ADVANCED_FACE ( 'NONE', ( #180 ), #56, .T. ) ;
#220 = CIRCLE ( 'NONE', #166, 0.04921259842519685318 ) ;
#221 = EDGE_LOOP ( 'NONE', ( #122, #223 ) ) ;
#222 = AXIS2_PLACEMENT_3D ( 'NONE', #106, #55, #98 ) ;
#223 = ORIENTED_EDGE ( 'NONE', *, *, #251, .F. ) ;
#224 = VERTEX_POINT ( 'NONE', #202 ) ;
#225 = PRODUCT_DEFINITION_FORMATION_WITH_SPECIFIED_SOURCE ( 'ANY', '', #167, .NOT_KNOWN. ) ;
#226 = DIRECTION ( 'NONE',  ( 1.000000000000000000, -0.0000000000000000000, 0.0000000000000000000 ) ) ;
#227 = CIRCLE ( 'NONE', #261, 0.07480314960629921850 ) ;
#228 = CARTESIAN_POINT ( 'NONE',  ( 0.06102362204724410405, 0.0000000000000000000, 0.0000000000000000000 ) ) ;
#229 = CARTESIAN_POINT ( 'NONE',  ( 0.06102362204724410405, 3.375010863791918221E-18, 0.02755905511811023584 ) ) ;
#230 = VERTEX_POINT ( 'NONE', #86 ) ;
#231 = CARTESIAN_POINT ( 'NONE',  ( 0.06102362204724410405, 0.0000000000000000000, 0.0000000000000000000 ) ) ;
#232 = EDGE_CURVE ( 'NONE', #28, #89, #203, .T. ) ;
#233 = FACE_OUTER_BOUND ( 'NONE', #35, .T. ) ;
#234 = DIRECTION ( 'NONE',  ( 0.0000000000000000000, 0.0000000000000000000, -1.000000000000000000 ) ) ;
#235 =( NAMED_UNIT ( * ) PLANE_ANGLE_UNIT ( ) SI_UNIT ( $, .RADIAN. ) );
#236 = ADVANCED_BREP_SHAPE_REPRESENTATION ( 'DSTCP-C-125MM', ( #259, #67 ), #216 ) ;
#237 = FILL_AREA_STYLE_COLOUR ( '', #121 ) ;
#238 = PRESENTATION_STYLE_ASSIGNMENT (( #138 ) ) ;
#239 = CARTESIAN_POINT ( 'NONE',  ( 0.06102362204724410405, 0.0000000000000000000, 0.0000000000000000000 ) ) ;
#240 = APPLICATION_PROTOCOL_DEFINITION ( 'draft international standard', 'automotive_design', 1998, #305 ) ;
#241 = AXIS2_PLACEMENT_3D ( 'NONE', #108, #207, #107 ) ;
#242 = ORIENTED_EDGE ( 'NONE', *, *, #191, .T. ) ;
#243 = AXIS2_PLACEMENT_3D ( 'NONE', #90, #8, #49 ) ;
#244 = EDGE_LOOP ( 'NONE', ( #300, #64, #267, #61 ) ) ;
#245 = CARTESIAN_POINT ( 'NONE',  ( 0.2657480314960630197, 9.160743773149492203E-18, -0.07480314960629921850 ) ) ;
#246 = DIRECTION ( 'NONE',  ( 1.000000000000000000, -0.0000000000000000000, -0.0000000000000000000 ) ) ;
#247 = CYLINDRICAL_SURFACE ( 'NONE', #214, 0.02755905511811023584 ) ;
#248 = DIRECTION ( 'NONE',  ( 1.000000000000000000, -0.0000000000000000000, 0.0000000000000000000 ) ) ;
#249 = PLANE ( 'NONE',  #243 ) ;
#250 = DIRECTION ( 'NONE',  ( 1.000000000000000000, -0.0000000000000000000, -0.0000000000000000000 ) ) ;
#251 = EDGE_CURVE ( 'NONE', #278, #201, #146, .T. ) ;
#252 = LINE ( 'NONE', #275, #258 ) ;
#253 = FACE_OUTER_BOUND ( 'NONE', #24, .T. ) ;
#254 = CARTESIAN_POINT ( 'NONE',  ( 0.06102362204724410405, 0.0000000000000000000, 0.0000000000000000000 ) ) ;
#255 = PRODUCT_DEFINITION ( 'UNKNOWN', '', #225, #308 ) ;
#256 = DIRECTION ( 'NONE',  ( 1.000000000000000000, -0.0000000000000000000, -0.0000000000000000000 ) ) ;
#257 = DIRECTION ( 'NONE',  ( 1.000000000000000000, -0.0000000000000000000, 0.0000000000000000000 ) ) ;
#258 = VECTOR ( 'NONE', #256, 39.37007874015748143 ) ;
#259 = MANIFOLD_SOLID_BREP ( 'Cut-Extrude1', #118 ) ;
#260 = CARTESIAN_POINT ( 'NONE',  ( 0.2657480314960630197, 3.375010863791918221E-18, 0.02755905511811023584 ) ) ;
#261 = AXIS2_PLACEMENT_3D ( 'NONE', #254, #97, #299 ) ;
#262 = FILL_AREA_STYLE_COLOUR ( '', #270 ) ;
#263 = PRODUCT_DEFINITION_SHAPE ( 'NONE', 'NONE',  #255 ) ;
#264 = VECTOR ( 'NONE', #145, 39.37007874015748143 ) ;
#265 = DIMENSIONAL_EXPONENTS ( 1.000000000000000000, 0.0000000000000000000, 0.0000000000000000000, 0.0000000000000000000, 0.0000000000000000000, 0.0000000000000000000, 0.0000000000000000000 ) ;
#266 = CARTESIAN_POINT ( 'NONE',  ( 0.2657480314960630197, 0.0000000000000000000, 0.0000000000000000000 ) ) ;
#267 = ORIENTED_EDGE ( 'NONE', *, *, #140, .T. ) ;
#268 = DIRECTION ( 'NONE',  ( 0.0000000000000000000, 0.0000000000000000000, -1.000000000000000000 ) ) ;
#269 = CARTESIAN_POINT ( 'NONE',  ( 0.06102362204724410405, 6.026805113914140175E-18, 0.04921259842519685318 ) ) ;
#270 = COLOUR_RGB ( '',0.4980392156862745168, 0.4980392156862745168, 0.4980392156862745168 ) ;
#271 = ORIENTED_EDGE ( 'NONE', *, *, #232, .F. ) ;
#272 = DIRECTION ( 'NONE',  ( 0.0000000000000000000, 0.0000000000000000000, -1.000000000000000000 ) ) ;
#273 = ORIENTED_EDGE ( 'NONE', *, *, #195, .F. ) ;
#274 = EDGE_CURVE ( 'NONE', #76, #105, #212, .T. ) ;
#275 = CARTESIAN_POINT ( 'NONE',  ( 0.06102362204724410405, 6.026805113914140175E-18, 0.04921259842519685318 ) ) ;
#276 = CARTESIAN_POINT ( 'NONE',  ( 0.06102362204724410405, 0.0000000000000000000, 0.0000000000000000000 ) ) ;
#277 = DIRECTION ( 'NONE',  ( 0.0000000000000000000, 0.0000000000000000000, -1.000000000000000000 ) ) ;
#278 = VERTEX_POINT ( 'NONE', #260 ) ;
#279 = DIRECTION ( 'NONE',  ( 0.0000000000000000000, 0.0000000000000000000, -1.000000000000000000 ) ) ;
#280 = CARTESIAN_POINT ( 'NONE',  ( 0.2657480314960630197, 0.0000000000000000000, 0.0000000000000000000 ) ) ;
#281 = AXIS2_PLACEMENT_3D ( 'NONE', #71, #248, #297 ) ;
#282 = FACE_OUTER_BOUND ( 'NONE', #244, .T. ) ;
#283 = PRODUCT_CONTEXT ( 'NONE', #58, 'mechanical' ) ;
#284 =( NAMED_UNIT ( * ) PLANE_ANGLE_UNIT ( ) SI_UNIT ( $, .RADIAN. ) );
#285 = CARTESIAN_POINT ( 'NONE',  ( 0.2657480314960630197, 0.0000000000000000000, 0.0000000000000000000 ) ) ;
#286 = ORIENTED_EDGE ( 'NONE', *, *, #175, .F. ) ;
#287 = CYLINDRICAL_SURFACE ( 'NONE', #150, 0.04921259842519685318 ) ;
#288 = DIRECTION ( 'NONE',  ( 1.000000000000000000, 0.0000000000000000000, 0.0000000000000000000 ) ) ;
#289 = DIRECTION ( 'NONE',  ( -1.000000000000000000, -0.0000000000000000000, -0.0000000000000000000 ) ) ;
#290 = PRESENTATION_LAYER_ASSIGNMENT (  '', '', ( #186 ) ) ;
#291 = CIRCLE ( 'NONE', #21, 0.02755905511811023584 ) ;
#292 = ORIENTED_EDGE ( 'NONE', *, *, #115, .F. ) ;
#293 = EDGE_CURVE ( 'NONE', #161, #94, #104, .T. ) ;
#294 = DIRECTION ( 'NONE',  ( -1.000000000000000000, -0.0000000000000000000, -0.0000000000000000000 ) ) ;
#295 = AXIS2_PLACEMENT_3D ( 'NONE', #239, #40, #211 ) ;
#296 = ORIENTED_EDGE ( 'NONE', *, *, #83, .T. ) ;
#297 = DIRECTION ( 'NONE',  ( 0.0000000000000000000, 0.0000000000000000000, -1.000000000000000000 ) ) ;
#298 = FACE_BOUND ( 'NONE', #221, .T. ) ;
#299 = DIRECTION ( 'NONE',  ( 0.0000000000000000000, 0.0000000000000000000, -1.000000000000000000 ) ) ;
#300 = ORIENTED_EDGE ( 'NONE', *, *, #163, .F. ) ;
#301 = CARTESIAN_POINT ( 'NONE',  ( 0.06102362204724410405, 0.0000000000000000000, 0.0000000000000000000 ) ) ;
#302 = PLANE ( 'NONE',  #16 ) ;
#303 = FILL_AREA_STYLE ('',( #262 ) ) ;
#304 = DIRECTION ( 'NONE',  ( 0.0000000000000000000, 0.0000000000000000000, -1.000000000000000000 ) ) ;
#305 = APPLICATION_CONTEXT ( 'automotive_design' ) ;
#306 = CARTESIAN_POINT ( 'NONE',  ( 0.06102362204724410405, 0.0000000000000000000, 0.0000000000000000000 ) ) ;
#307 =( LENGTH_UNIT ( ) NAMED_UNIT ( * ) SI_UNIT ( $, .METRE. ) );
#308 = PRODUCT_DEFINITION_CONTEXT ( 'detailed design', #305, 'design' ) ;
#309 = EDGE_LOOP ( 'NONE', ( #117, #99 ) ) ;
ENDSEC;
END-ISO-10303-21;
